slow hand

(/) Slide Up  (\) Slide Down  (h) Hammer On  (p) Pull Off  (b) Bend (r) Release (v) Vibrato


E|----------------------------------------------------------------------------------------------------
B|-------------------------------------------------------------------------------------------6--------
G|-----3--5--3--------------3--5--3--------------3--5--3------------3--5--5b3--------3--5/7-----7--5--
D|--5-----------3--5v----5-----------5--3v----5-----------3--5v--5-------------5--5-------------------
A|----------------------------------------------------------------------------------------------------
E|----------------------------------------------------------------------------------------------------



E|--------------------
B|--------------------
G|-----5-----5--------
D|--8-----8-----8--5--
A|--------------------
E|--------------------
http://www.guitartabcreator.com
Guitar Tab Creator is intended to store guitar tab created through the tool. It currently does not support in-line text editing. Any text you place in here will be lost. If you need to comment on your tab, please use the "Tab Notes" section located below.