Blues Rifts w/ Video

(/) Slide Up  (\) Slide Down  (h) Hammer On  (p) Pull Off  (b) Bend (r) Release (v) Vibrato

E|--------------------------------------------------------10b10-------
B|--------------------------------------------10--11--12---------12v--
G|----------------------7b7------7/9--10--11--------------------------
D|-------------7--8--9-------9v---------------------------------------
A|--5/7--8--9---------------------------------------------------------
E|--------------------------------------------------------------------



E|--------------------------------------------------------
B|---------------------------------------10------10--12v--
G|--------------------------7/9--10--11------11-----------
D|-------------7-----7--9v--------------------------------
A|--5/7--8--9-----9---------------------------------------
E|--------------------------------------------------------



E|--14b14--13--12/10----------------------------------------------------------
B|--------------------12--10/12-----------------------------------------------
G|-------------------------------11b11--10--9/7-------------------------------
D|-----------------------------------------------9--7/9-----------------------
A|-------------------------------------------------------9b9--8--7/5----------
E|--------------------------------------------------------------------7--5/7--



E|------------------------------------------------------12--10-------------------10b----
B|--------------------------------------------------------------12v--10--11--12-----12--
G|----------------------------9b9--7---------------7b-----------------------------------
D|------------------------------------9v--7--8--9----9----------------------------------
A|--7b7--5---------------5b-------------------------------------------------------------
E|----------7v--5--6--7----7------------------------------------------------------------
http://www.guitartabcreator.com
Guitar Tab Creator is intended to store guitar tab created through the tool. It currently does not support in-line text editing. Any text you place in here will be lost. If you need to comment on your tab, please use the "Tab Notes" section located below.