I will always love you

(/) Slide Up  (\) Slide Down  (h) Hammer On  (p) Pull Off  (b) Bend (r) Release (v) Vibrato
E|-----------|-----------|--------------|-----------------|--------------|-----------|--
B|-----------|-----------|--------------|-----------------|--------------|-----------|--
G|-----------|-----------|--------------|-----------------|--------------|-----------|--
D|--------0--|-----------|--------------|--------------2--|--2--0-----0--|-----------|--
A|--3--2-----|--2--0--3--|--2--2--0-----|-----2--0--------|--------3-----|--2--0--3--|--
E|-----------|-----------|-----------3--|--3--------3-----|--------------|-----------|--



E|--------------|--------------------|-----------|--------|-----------------|--------
B|--------------|--------------------|-----------|--------|-----------------|--------
G|--------------|--------------------|-----------|--0--2--|--0-----0--2--0--|--0-----
D|--------------|-----------------2--|--2--0--0--|--------|-----3-----------|--------
A|--2--2--0-----|-----0--2--0--------|-----------|--------|-----------------|--------
E|-----------3--|--3-----------3-----|-----------|--------|-----------------|--------



E|--------------------|-----|--|--|--|-----------|--|--|-----|--------|--------------------
B|--------------------|-----|--|--|--|-----------|--|--|-----|-----0--|--------------0-----
G|--0--0-----0--2--0--|--0--|--|--|--|-----------|--|--|--2--|--2-----|--2--2--1--2--------
D|--------3-----------|-----|--|--|--|-----0--2--|--|--|-----|--------|--------------------
A|--------------------|-----|--|--|--|--3--------|--|--|-----|--------|--------------------
E|--------------------|-----|--|--|--|-----------|--|--|-----|--------|--------------------



E|--------------|--------------------|--------------|-----------------------------
B|--------------|--------------0-----|--------------|-----------0-----------------
G|--2--2--2--2--|--2--1-----------2--|--2--2--2--2--|--2--1--2-----2--2--2--2--2--
D|--------------|--------4--2--------|--------------|-----------------------------
A|--------------|--------------------|--------------|-----------------------------
E|--------------|--------------------|--------------|-----------------------------



E|-----------------|--0-----|-----------------
B|-----------------|-----2--|-----------------
G|--2--1-----------|--------|--2--2--1--------
D|--------4--2--2--|--------|-----------2--2--
A|-----------------|--------|-----------------
E|-----------------|--------|-----------------



E|--0-----|-----------------------|-----------|--|--------|--------------------------------------
B|-----2--|-----------------------|--2--0-----|--|--------|--------------------------------------
G|--------|--2--2--2--1-----------|--------2--|--|--------|--------------------------------------
D|--------|--------------4--1--1--|-----------|--|--------|-----------------------------4--------
A|--------|-----------------------|-----------|--|--4--2--|--4--2--4--2--4--2--------------4-----
E|--------|-----------------------|-----------|--|--------|--------------------4--2--0-----------



E|--------|-----
B|--------|--2--
G|-----2--|-----
D|--2-----|-----
A|--------|-----
E|--------|-----
http://www.guitartabcreator.com
Guitar Tab Creator is intended to store guitar tab created through the tool. It currently does not support in-line text editing. Any text you place in here will be lost. If you need to comment on your tab, please use the "Tab Notes" section located below.