Bruno Mars - i think i wanna marry you melody

(/) Slide Up  (\) Slide Down  (h) Hammer On  (p) Pull Off  (b) Bend (r) Release (v) Vibrato

E|----------------------------------------------------------------------------------------------
B|----------------------------------------------------------------------------------------------
G|----------------------------------------------------------------------------------------------
D|--19--19--19--19----19--19--17--15--17--19--12----19--17--15----15--15--15--15--17--15----15--
A|----------------------------------------------------------------------------------------------
E|----------------------------------------------------------------------------------------------



E|------------------------------------------------------------------------
B|------------------------------------------------------------------------
G|------------------------------------------------------------------------
D|--10--10--12--12--14--15----10--10--12--12--14--15----17/19\17--15--12--
A|------------------------------------------------------------------------
E|------------------------------------------------------------------------



E|--------------------------------------------------------
B|--------------------------------------------------------
G|--------------------------------------------------------
D|--15--15------15--17/19\17--15--12----15--15----15--10--
A|--------------------------------------------------------
E|--------------------------------------------------------



E|---------------------------------------------------------------------------------------------
B|---------------------------------------------------------------------------------------------
G|---------------------------------------------------------------------------------------------
D|--19--17--15--14--15----20--19--17--15--14----20--19--17--15--14----14--15--17--19--15-------
A|---------------------------------------------------------------------------------------------
E|---------------------------------------------------------------------------------------------



E|------------------
B|------------------
G|------------------
D|--15--17--19--20--
A|------------------
E|------------------
http://www.guitartabcreator.com
Guitar Tab Creator is intended to store guitar tab created through the tool. It currently does not support in-line text editing. Any text you place in here will be lost. If you need to comment on your tab, please use the "Tab Notes" section located below.