Prehistoric Brew

(/) Slide Up  (\) Slide Down  (h) Hammer On  (p) Pull Off  (b) Bend (r) Release (v) Vibrato


E|-------------------------------------------------
B|-------------------------------------------------
G|-------------------------------------------------
D|-------------------------------------------------
A|-------------------------------------------------
E|--3----7--6--3----7--6--3----7--6--3----7--6-----



E|--------------------------------------------------
B|--------------------------------------------------
G|--------------------------------------------------
D|--------------------------------------------------
A|--4--4--4--4--4--4--4--4--2--2--2--2--1--1--1--1--
E|--------------------------------------------------



E|--------------------------------------------------------------------------------------------
B|--------------------------------------------------------------------------------------------
G|--------------------------------------------------------------------------------------------
D|--------------------------------------------------------------------------------------------
A|--6--5--------------------------6--5--------------------------6--5--------------------------
E|--------3--3--3--3--3--3--3--3--------3--3--3--3--3--3--3--3--------3--3--3--3--3--3--3--3--



E|--------------------------------------------------------------
B|--------------------------------------------------------------
G|--------------------------------------------------------------
D|--------------------------------------------------------------
A|--6--5--------------------------6--5--------------------------
E|--------3--3--3--3--3--3--3--3--------3--3--3--3--3--3--3--3--



E|-----------------------------------------------------
B|-----------------------------------------------------
G|-----------------------------------------------------
D|-----------------------------------------------------
A|--2--2--2--2--1--1--1--1--5--5--5--5--4--4--4--4-----
E|-----------------------------------------------------



E|----------------------------------------------
B|----------------------------------------------
G|----------------------------------------------
D|----------------------------------------------
A|--2--2--2--2--1--1--1--1--5--5--5--5--4----4--
E|----------------------------------------------
http://www.guitartabcreator.com
Guitar Tab Creator is intended to store guitar tab created through the tool. It currently does not support in-line text editing. Any text you place in here will be lost. If you need to comment on your tab, please use the "Tab Notes" section located below.