That is on big pile of shit

(/) Slide Up  (\) Slide Down  (h) Hammer On  (p) Pull Off  (b) Bend (r) Release (v) Vibrato


E|----------------------------------------------------------------------------------------
B|----------------------------------------------------------------------------------------
G|----------------------------------------------------------------------------------------
D|----------------------------------------------------------------------------------------
A|----------------------------------------------------------------------------------------
E|--1----1----1----4\3----1----1----1----4\3----1----1----1----4\3----1----1----1----4\3--



E|------------------------------------------------------------------------------------------
B|------------------------------------------------------------------------------------------
G|--------------------------1--1--1--3----3--3--------------------------1--1--1--3----3--3--
D|--3--3--3--3--1--1--1--1----------------------3--3--3--3--1--1--1--1----------------------
A|------------------------------------------------------------------------------------------
E|------------------------------------------------------------------------------------------



E|------------------------------------------------------------------------------------------
B|------------------------------------------------------------------------------------------
G|--------------------------1--1--1--3----3--3--------------------------1--1--1--3----3--3--
D|--3--3--3--3--1--1--1--1----------------------3--3--3--3--1--1--1--1----------------------
A|------------------------------------------------------------------------------------------
E|------------------------------------------------------------------------------------------



E|--------------------------------
B|--------------------------------
G|--------------------------------
D|--------------------------------
A|--------------------------------
E|----4----6----4----4----6----4--



E|----------------------------------------------------------------------------------------
B|----------------------------------------------------------------------------------------
G|----------------------------------------------------------------------------------------
D|----------------------------------------------------------------------------------------
A|----------------------------------------------------------------------------------------
E|--1----1----1----4\3----1----1----1----4\3----1----1----1----4\3----1----1----1----4\3--



E|--------------------------------------------------------------------
B|--------------------------------------------------------------------
G|--------------------------------------------------------------------
D|--------------------------------------------------------------------
A|--------------------------------------------------------------------
E|--1----1--1--1--1--1----1--1--1--1--1----1--1--1--1----1----1----1--
http://www.guitartabcreator.com
Guitar Tab Creator is intended to store guitar tab created through the tool. It currently does not support in-line text editing. Any text you place in here will be lost. If you need to comment on your tab, please use the "Tab Notes" section located below.