The Last Of Us - All Gone (It's Me) - Kyajin

(/) Slide Up  (\) Slide Down  (h) Hammer On  (p) Pull Off  (b) Bend (r) Release (v) Vibrato
t:
E|---------------------------------------------------------
B|--5/8--0p8h0p8h0p8h0p8h0p7--5h5h5h8p0--8p0h8p0h8--7h8p7--
G|---------------------------------------------------------
D|---------------------------------------------------------
A|---------------------------------------------------------
E|---------------------------------------------------------


t:
E|-------------------------------------------------
B|--8p5--5--3--1h3p1--0--------5/8--8--7--5--8--7--
G|-----------------------0-------------------------
D|--------------------------2----------------------
A|-------3-----------------------7-----5-----------
E|--------------------0----------------------8--7--



E|-------------------------------------
B|--5--8--------7--5--4--5/7/8/12--12--
G|-----5-----5--5----------------------
D|-----7--7-----7-----4----------------
A|-----0-------------------------------
E|---------------------------------0---
http://www.guitartabcreator.com
Guitar Tab Creator is intended to store guitar tab created through the tool. It currently does not support in-line text editing. Any text you place in here will be lost. If you need to comment on your tab, please use the "Tab Notes" section located below.