Hearthstone - Main Theme (Guitar 2) Drop D

(/) Slide Up  (\) Slide Down  (h) Hammer On  (p) Pull Off  (b) Bend (r) Release (v) Vibrato

Stave 1:

E|-----------------------------------------------------------------------------------------
B|------------------3--6--3--------------------------0--------------10--13--10-------------
G|---------------------------5--2--5--2-----------2-----0-----------------------12--10--9--
D|---------------------------------------5--0--3-------------3-----------------------------
A|--0--2--3--5-----------------------------------------------------------------------------
E|--0--2--3--5-----------------------------------------------------------------------------

Stave 2:

E|--------------------------------------------------------------
B|--------------------------------------------------------------
G|--------------------------------------------------------------
D|--12-------------------------------0--------------------------
A|--0-----0--0----0--0----0--0----0--0----0--0----0--0----0--0--
E|--0-----0--0----0--0----0--0----0--0----0--0----0--0----0--0--

Stave 3:

E|-----------------------------|-----------------------------
B|-----------------------------|-----------------------------
G|-----------------------------|-----------------------------
D|--3--3----3----3--3----3--3--|--3--3----3----3--3----0--0--
A|--3--3----3----3--3----3--3--|--3--3----3----3--3----0--0--
E|--3--3----3----3--3----3--3--|--3--3----3----3--3----0--0--

Stave 4:

E|-----------------------------------------|-----------------
B|--------------------------3--3--3--3--3--|-----------------
G|--2--2----2--2----5--5----2--2--4--5--5--|-----------------
D|--2--2----2--2----2--2----2--2--2--2--2--|-----------------
A|--0--0----0--0----0--0----0--0--0--0--0--|-----------------
E|-----------------------------------------|-----------------

Stave 5:

E|--------------------------------------------------|--
B|--------------------------------------------------|--
G|--------------------------------------------------|--
D|-----2-----2-----0-----2-----2-----2-----3-----2--|--
A|--0-----0-----0-----0-----0-----0-----0-----0-----|--
E|--------------------------------------------------|--

Stave 6:

E|-------------------------------------------------------------------------------------
B|--------0--------------------0----------------0-----------------------0--------------
G|-------------------------------------------------------------------------------------
D|--2-----------5--5--4--2-----------2----5-----------5-----------5--------------------
A|----------------------------------------------------------6--6--------------7--7--8--
E|--2--2-----2--2--------2--2-----2--2--2/5--5-----5--5--5--5--5--5--5-----5--5--5--5--

http://www.guitartabcreator.com
Guitar Tab Creator is intended to store guitar tab created through the tool. It currently does not support in-line text editing. Any text you place in here will be lost. If you need to comment on your tab, please use the "Tab Notes" section located below.