Hearthstone Main Theme - Guitar 1 (Lead) Drop D

(/) Slide Up  (\) Slide Down  (h) Hammer On  (p) Pull Off  (b) Bend (r) Release (v) Vibrato

Stave 1:

E|--------------------------------------------------------------------------------
B|--3--6--3--------------------------0--------------------------------------------
G|-----------5--2--5--2-----------2-----0-----------------------------------------
D|-----------------------5--0--3-----------0--3--2--3--2--0--------------------3--
A|--------------------------------------------------------0--0--0--0--3--5--0--3--
E|--------------------------------------------------------0--0--0--0--3--5-----3--

Stave 2:

E|--------------------------------------------------------------------------------
B|--------------------------------------------------------------------------------
G|--------------------------------------------------------------------------------
D|-----0-----0--2--3--2--------0-----0--2--3--2-----0-----0--2--3--2--3--2--0-----
A|--0-----0--------------3--0-----0--------------0-----0-----------------------3--
E|--------------------------------------------------------------------------------

Stave 3:

E|---------------------------------------------------------------------------------------------
B|---------------------------------------------------------------------------------------------
G|---------------------------------------------------------------------------------------------
D|-------------------------------0-----0--2--3--2--------0-----0--2--3--5-------0-----0--2--3--
A|--0--0--3--0-----------0----0-----0--------------3--0-----0----------------0-----0-----------
E|--------------5--2--5------------------------------------------------------------------------

Stave 4:

E|--------------------------------------------------------------------------------------
B|--------------------------------------------------------------------------------------
G|--------------------2--5--2-----------2--5--2-----------2--5--2--0--2--0--------------
D|--2--3--5--3--2--------------5--2--5-----------5--2--5--------------------2--0--------
A|-----------------5--------------------------------------------------------------3--5--
E|--------------------------------------------------------------------------------------

Stave 5:

E|---------------------------------------------------------------------------------------------------
B|---------------------------------------------------------------------------------------------------
G|--------------------0--2--0---------------------------------------------------------0--2--0--------
D|-----3-----3-----3-----------3--0--3--0-----------0--3--0------------------3-----3-----------3-----
A|--3-----3-----3--------------------------3--0--3-----------3--0--3------3-----3--------------------
E|---------------------------------------------------------------------------------------------------

Stave 6:

E|----------------------------------------------------------------------------------------------------------
B|----------------------------------------------------------------------------------------------------------
G|--0-------------------------------------------------------0--2--0-----------------------------------------
D|-----3--2--0--3--0-----------0-----0-------3-----3-----3-----------3--0--3--0-----------0--3--0-----------
A|--------------------3--0--3-----3-------3-----3-----3--------------------------3--0--3-----------3--0--3--
E|----------------------------------------------------------------------------------------------------------

Stave 7:

E|--------------------------------------------------
B|--------------------------------------------------
G|--------------0--2--0-----0-----------------------
D|-----3-----3-----------3-----0--3--0-----------0--
A|--3-----3-----------------------------3--0--3-----
E|--------------------------------------------------

Stave 8:

E|--------------------------------------------------------
B|--13--12----------------------------------------13------
G|----------14--12--------------------12------12------14--
D|------------------12--14--------14------14--------------
A|--------------------------------------------------------
E|--------------------------------------------------------

Stave 9:

E|-------------------------------------------------------------------------------------------------------
B|-------------------------------------------------------------------------------------------------------
G|-----------------------------------------------------------------9----12--10--9----7--9--10--9---------
D|--10--9--7-------------------------------10--7--10-----------10---------------------------------10--7--
A|------------10--5--7----7--9--10--7--10---------------7--10--------------------------------------------
E|-------------------------------------------------------------------------------------------------------

Stave 10:

E|--------------------------------------------------
B|------------------------------------10--8---------
G|------------------7--------------9---------10--9--
D|--9--10----9--10-----10--9--7---------------------
A|--------------------------------------------------
E|--------------------------------------------------

Stave 11:

E|-------------------------------------------------------------------------12------
B|-----12--10--10--13--11--------------11--11--10--------15--13----13--15------15--
G|--9------------------------12--------------------12------------------------------
D|-------------------------------12------------------------------------------------
A|---------------------------------------------------------------------------------
E|---------------------------------------------------------------------------------

http://www.guitartabcreator.com
Guitar Tab Creator is intended to store guitar tab created through the tool. It currently does not support in-line text editing. Any text you place in here will be lost. If you need to comment on your tab, please use the "Tab Notes" section located below.