Bravely Default - Eternity's Moment (Rhythm)

(/) Slide Up  (\) Slide Down  (h) Hammer On  (p) Pull Off  (b) Bend (r) Release (v) Vibrato

Stave 1:

E|--------------------------------------------------------------------------
B|-----------------1-----------------------------------1--------------------
G|--------0-----2-----------0-----------------0-----2-----------------------
D|-----1-----3-----------1--------0--3-----1-----3-----------------5--6-----
A|--3-----------------3--------1--------3--------------------3--6-----------
E|--------------------------------------------------------4--------------6--

Stave 2:

E|--------------------------------------------------------------------------
B|-----------------1-----------------------------------1--------------------
G|--------0-----2-----------0-----------------0-----2-----------------4--3--
D|-----1-----3-----------1--------0--3-----1-----3-----------------5--------
A|--3-----------------3--------1--------3--------------------2--5-----------
E|--------------------------------------------------------3-----------------

Stave 3:

E|-----------------------------------------------------------------------------------
B|-----------------1--------1-----------------------------------3--------3-----------
G|-----0--3-----2--------1-----------0-----------1--3--------3--------0--------------
D|--1--------3--------3-----------1-----------1-----3-----3-----1--1--------------0--
A|-----------------------------3-----------3-----------1--------3--------------2-----
E|--------------------------------------4-----------------------------------3--------

Stave 4:

E|----------------------------------------------------------------------------------
B|-----------------1-------------------------------------------------------------1--
G|--------0-----2--------------1--------0--3-----------1-------------------0--3-----
D|-----1-----3--------------1--------1--------------1-----------0-------1-----------
A|--3--------------------3--------3--------------3-----------2-------3--------------
E|--------------------4-----------------------4-----------3-------------------------

http://www.guitartabcreator.com
Guitar Tab Creator is intended to store guitar tab created through the tool. It currently does not support in-line text editing. Any text you place in here will be lost. If you need to comment on your tab, please use the "Tab Notes" section located below.