Bravely Default - Eternity's Moment (Melody) up octave

(/) Slide Up  (\) Slide Down  (h) Hammer On  (p) Pull Off  (b) Bend (r) Release (v) Vibrato

Stave 1:

E|---------8------------------------------------------------------------
B|------8-----11--10--11--10--------------10----------------------------
G|----------------------------12--10--12------12------7--8--7--8--7-----
D|--10--------------------------------------------10-----------------8--
A|----------------------------------------------------------------------
E|----------------------------------------------------------------------

Stave 2:

E|---------8------------------------------------------------------------
B|------8-----11--10--11--10----------9---------------------------------
G|----------------------------12--10----------8--7------------------12--
D|--10--------------------------------10--10----------------------------
A|----------------------------------------------------------------------
E|----------------------------------------------------------------------

Stave 3:

E|--------------6--8--5--6--5--------5----------------------------------------
B|--------6--8-----------------8--6-----9--8--6--8-------------6--------------
G|--7--8--------------------------------------------5----7--8-----7--8--7--5--
D|----------------------------------------------------------------------------
A|----------------------------------------------------------------------------
E|----------------------------------------------------------------------------

Stave 4:

E|--------6--4--6--4----------------------------------6--8--5--6--5--------8--8--
B|--------------------8------4--6--8---------------8-----------------8--6--------
G|-----7----------------------------------5--7--8--------------------------------
D|--8----------------------------------------------------------------------------
A|-------------------------------------------------------------------------------
E|-------------------------------------------------------------------------------

Stave 5:

E|--6-------------------------------------------------------------------
B|-----9--8------------------6------------------------------------4--4--
G|-----------8------5--7--8-----7--8--7--5--4-----------4--5---------5--
D|---------------------------------------------------7------------------
A|----------------------------------------------------------------------
E|----------------------------------------------------------------------

http://www.guitartabcreator.com
Guitar Tab Creator is intended to store guitar tab created through the tool. It currently does not support in-line text editing. Any text you place in here will be lost. If you need to comment on your tab, please use the "Tab Notes" section located below.