Bravely Default - Eternity's Moment

(/) Slide Up  (\) Slide Down  (h) Hammer On  (p) Pull Off  (b) Bend (r) Release (v) Vibrato

E|---------8-----------------------------------------------------------------
B|------8-----11--10--11--10--------------10---------------------------------
G|----------------------------12--10--12------12-----------------------------
D|--10--------------------------------------------10--12--13--12--13--12--8--
A|---------------------------------------------------------------------------
E|---------------------------------------------------------------------------



E|---------8----------------------------------------------------------------------
B|------8-----11--10--11--10----------9-------------------------------------------
G|----------------------------12--10--------------------------------12------------
D|------------------------------------10--10--13--12------------------------------
A|--10----------------------------------------------------------------------------
E|--------------------------------------------------------------------------------



E|----------------------------------------------------------------------
B|------------------11--13--10--11--10----------10----------------------
G|----------10--12----------------------12--10------13--12--10--12------
D|--12--13----------------------------------------------------------10--
A|----------------------------------------------------------------------
E|----------------------------------------------------------------------



E|--------------------------------------------------------------------------
B|--------------------------------------11--9--11--9------------------------
G|----------10----------------------------------------12------------10--12--
D|--12--13------12--13--12--10------12--------------------------13----------
A|------------------------------13------------------------------------------
E|--------------------------------------------------------------------------



E|----------------------------------------------------------------------
B|------------------11--13--10--11--10----------13--13--11--------------
G|--------------12----------------------12--10--------------13--12------
D|--10--12--13------------------------------------------------------13--
A|----------------------------------------------------------------------
E|----------------------------------------------------------------------

Stave 1:

E|-------------------------------------------------------
B|-------------------------------------------------------
G|--------------10--------------------------------8--8---
D|--10--12--13------12--13--12--10--9------9--10-----10--
A|-------------------------------------12----------------
E|-------------------------------------------------------

http://www.guitartabcreator.com
Guitar Tab Creator is intended to store guitar tab created through the tool. It currently does not support in-line text editing. Any text you place in here will be lost. If you need to comment on your tab, please use the "Tab Notes" section located below.