Super Mario

(/) Slide Up  (\) Slide Down  (h) Hammer On  (p) Pull Off  (b) Bend (r) Release (v) Vibrato


E|----------------------------------------------------------------------
B|----------------------------------------------------------------------
G|--17----------14--16--15--14----------12--14------12------------------
D|------17--14----------------------14----------15------14------12------
A|----------------------------------------------------------15------14--
E|------------------------------12--------------------------------------



E|----------------------------------------------------------------------
B|----------------------------------------------------------------------
G|--17----------14--16--15--14----------12--14------12------------------
D|------17--14----------------------14----------15------14------12------
A|----------------------------------------------------------15------14--
E|------------------------------12--------------------------------------



E|------------------------------------------------------------------17--17--17--
B|------------------------------------------------------------------------------
G|------------------------------------------------------------------------------
D|--17--16--15--13--14----------10------10--12--17--16--15--13--14--------------
A|----------------------10--12------12------------------------------------------
E|------------------------------------------------------------------------------



E|----------------------------------------------------------
B|----------------------------------------------------------
G|----------------------------------------------------------
D|--17--16--15--13--14----------10------10--12--13--12--10--
A|----------------------10--12------12----------------------
E|----------------------------------------------------------



E|-----------------------------------------------
B|-----------------------------------------------
G|-----------------------------------------------
D|-----------------2--------------------------2--
A|--3--3--3--3--5-----3--------3--3--3--3--5-----
E|-----------------------5--3--------------------



E|---------------------------------------------------------
B|---------------------------------------------------------
G|---------------------------------------------------------
D|-----------------2-----------14--14--14------14--17------
A|--3--3--3--3--5-----3--------------------15----------10--
E|-----------------------5--3------------------------------
http://www.guitartabcreator.com
Guitar Tab Creator is intended to store guitar tab created through the tool. It currently does not support in-line text editing. Any text you place in here will be lost. If you need to comment on your tab, please use the "Tab Notes" section located below.