Osudova

(/) Slide Up  (\) Slide Down  (h) Hammer On  (p) Pull Off  (b) Bend (r) Release (v) Vibrato

E|-----------------------
B|--3--3--5--3--------0--
G|--2--2--4--2-----2-----
D|--0-----------4--------
A|-----------------------
E|-----------------------



E|--0--0--0--0--0----0--0--
B|--3--3--3--3--3----3--3--
G|--2--2--2--2--0----2--2--
D|----------------------2--
A|--2--------2-------2--0--
E|-----2--3-----0----------



E|--0--0--0--0--0--0--0--
B|--3--3--3--3--3--3--3--
G|--0--2--2--2--0--2--2--
D|-----------------------
A|-----------2-----------
E|--0--2--3-----0--2--3--
http://www.guitartabcreator.com
Guitar Tab Creator is intended to store guitar tab created through the tool. It currently does not support in-line text editing. Any text you place in here will be lost. If you need to comment on your tab, please use the "Tab Notes" section located below.