Mimosezona

(/) Slide Up  (\) Slide Down  (h) Hammer On  (p) Pull Off  (b) Bend (r) Release (v) Vibrato

E|--------3-----3--3--------------3-------------------
B|--------3-----0--3-----3--------3-------------------
G|-----0-----0--------0--------2-----2--0/2--0--------
D|----------------------------------------------0-----
A|--3-----------------------2----------------------2--
E|----------------------------------------------------



E|-----
B|-----
G|-----
D|-----
A|-----
E|-----



E|--8--10--0----------------
B|--8--10--0----------------
G|--7--9---0----------------
D|---------9-----10--9---7--
A|--7--9---10----10--10--9--
E|---------0-----0---0---0--



E|--------------
B|--7--5--5--5--
G|--9--7--5--7--
D|--9--7--5--7--
A|--7--5--3--5--
E|--------------



E|--7--7--5--5-----
B|--8--5--5--8--8--
G|--9--5--5--5--9--
D|-----------------
A|-----0--0--0--7--
E|--8-----------0--
http://www.guitartabcreator.com
Guitar Tab Creator is intended to store guitar tab created through the tool. It currently does not support in-line text editing. Any text you place in here will be lost. If you need to comment on your tab, please use the "Tab Notes" section located below.