Lick Series 2 (from Jack Thammarat - Morning Jam)

(/) Slide Up  (\) Slide Down  (h) Hammer On  (p) Pull Off  (b) Bend (r) Release (v) Vibrato

Stave 1:

E|--------------------------------------------------------------------------------------
B|--------------------------------------------------------------------------------------
G|--------------------------------------------------------------13--14--16--13--14--16--
D|--------------------------------------13--14--16--13--14--16--------------------------
A|--------------12--14--16--12--14--16--------------------------------------------------
E|--12--14--16--------------------------------------------------------------------------

Stave 2:

E|--------------------------14--16--17--17b19rp16--|--|--
B|--14--16--17--14--16--17-------------------------|--|--
G|-------------------------------------------------|--|--
D|-------------------------------------------------|--|--
A|-------------------------------------------------|--|--
E|-------------------------------------------------|--|--

Stave 3:

E|--------------------------------------17--------------------------------15--17--
B|----------------------17--17--15--15-----------------15--17------15h17----------
G|------16--16--14--14-----------------------------16----------16-----------------
D|--14--------------------------------------14h17---------------------------------
A|--------------------------------------------------------------------------------
E|--------------------------------------------------------------------------------

Stave 4:

E|--19--19p17p15\14--15--17--|--|--
B|---------------------------|--|--
G|---------------------------|--|--
D|---------------------------|--|--
A|---------------------------|--|--
E|---------------------------|--|--

Stave 5:

E|--13/14----------13/14-------------------------------|--|--
B|---------15-------------15---------------------------|--|--
G|-------------16-------------16--14------14------13v--|--|--
D|------------------------------------16------16-------|--|--
A|-----------------------------------------------------|--|--
E|-----------------------------------------------------|--|--

Stave 6:

E|----------------------------------------------------------------------------------------
B|----------------------12h15p12------12h15p12------12h15p12------12h17p12------12h15p12--
G|----------12--14--15------------15------------15------------15------------15------------
D|--12--14--------------------------------------------------------------------------------
A|----------------------------------------------------------------------------------------
E|----------------------------------------------------------------------------------------

Stave 7:

E|------------------------------|--|--
B|------12h17p12------12h15p12--|--|--
G|--15------------15------------|--|--
D|------------------------------|--|--
A|------------------------------|--|--
E|------------------------------|--|--

Stave 8:

E|---------12-----------------12-----------------12-----------------12----------14b15--|--|--
B|--15b17------15--12--15b17------15--12-------------15--12--15b17------15--12---------|--|--
G|----------------------------------------14b16----------------------------------------|--|--
D|-------------------------------------------------------------------------------------|--|--
A|-------------------------------------------------------------------------------------|--|--
E|-------------------------------------------------------------------------------------|--|--

Stave 9:

E|------------------------------------------------------------------------------
B|------------------------------------------------------------------------------
G|--------------14--16--18--16--14----------------------14--16--18--14--16--18--
D|--14--16--18----------------------18--16--14--16--18--------------------------
A|------------------------------------------------------------------------------
E|------------------------------------------------------------------------------

Stave 10:

E|--------------------------16h17h19p17p16----------19b21--|--|--
B|--15--17--19--15--17--19------------------17-------------|--|--
G|----------------------------------------------16---------|--|--
D|---------------------------------------------------------|--|--
A|---------------------------------------------------------|--|--
E|---------------------------------------------------------|--|--

http://www.guitartabcreator.com
Guitar Tab Creator is intended to store guitar tab created through the tool. It currently does not support in-line text editing. Any text you place in here will be lost. If you need to comment on your tab, please use the "Tab Notes" section located below.