Lick Series 1 (from Born of Osiris - Recreate)

(/) Slide Up  (\) Slide Down  (h) Hammer On  (p) Pull Off  (b) Bend (r) Release (v) Vibrato

Stave 1:

E|--14p10--------------10h14h19p14p10-----------------------------------|--|--
B|---------12------12------------------12----------------------12--14v--|--|--
G|-------------11--------------------------11--------------11-----------|--|--
D|---------------------------------------------12------12---------------|--|--
A|-------------------------------------------------14-------------------|--|--
E|----------------------------------------------------------------------|--|--

Stave 2:

E|----------12h13h17p13p12--------------12h15h19/20\19p15p12------------------------
B|------13------------------13------13------------------------13-------------12h13--
G|--14--------------------------14--------------------------------14--12h14---------
D|----------------------------------------------------------------------------------
A|----------------------------------------------------------------------------------
E|----------------------------------------------------------------------------------

Stave 3:

E|--12-------------------------------------------------------------------|--|--
B|------15v--12h13p12------12-------------------------------------13\11--|--|--
G|---------------------14------14p13p12------12------------12h14---------|--|--
D|---------------------------------------14------14p12h14----------------|--|--
A|-----------------------------------------------------------------------|--|--
E|-----------------------------------------------------------------------|--|--

Stave 4:

E|-------------------------------------------------|--|--
B|-----------------12--13--12--13/15---------------|--|--
G|-------------14----------------------------------|--|--
D|---------14-------------------------14--10--12v--|--|--
A|--12h15------------------------------------------|--|--
E|-------------------------------------------------|--|--

http://www.guitartabcreator.com
Guitar Tab Creator is intended to store guitar tab created through the tool. It currently does not support in-line text editing. Any text you place in here will be lost. If you need to comment on your tab, please use the "Tab Notes" section located below.