tenacious d- jesus ranch

(/) Slide Up  (\) Slide Down  (h) Hammer On  (p) Pull Off  (b) Bend (r) Release (v) Vibrato


E|--2--2-----------------------------2--2--2--
B|--3--3r0h3--2--2--2h3p2------------2--2--2--
G|--4--4------2--2--2------1--1r0h1--3--3--3--
D|--4--4------2--2--2------2--2------4--4--4--
A|--2--2-------------------2--2------4--4--4--
E|-----------------------------------2--2--2--



E|-----------------------------2--2--2--2--2--
B|--2--2--2--2--2--2-----------2--2--2--2--2--
G|--2--2--2--2--2--2--1--1--1--3--3--3--3--3--
D|--2--2--2--2--2--2--2--2--2--4--4--4--4--4--
A|--------------------2--2--2--4--4--4--4--4--
E|-----------------------------2--2--2--2--2--



E|--
B|--
G|--
D|--
A|--
E|--
http://www.guitartabcreator.com
Guitar Tab Creator is intended to store guitar tab created through the tool. It currently does not support in-line text editing. Any text you place in here will be lost. If you need to comment on your tab, please use the "Tab Notes" section located below.