rock n roller

(/) Slide Up  (\) Slide Down  (h) Hammer On  (p) Pull Off  (b) Bend (r) Release (v) Vibrato


E|-----------------------------------
B|-----------------------------------
G|-----------------------------------
D|-----------------------------------
A|--4--4--4--4--4--4--4--4--7--6--4--
E|--2--0--2--0--2--0--2--0--5--4--2--



E|-------------7--7--------------------
B|-------------7--7--------------------
G|-------------7--7--------------------
D|-------------7--7-----5--5--5--5--5--
A|--2-------7--7--7--7--3--3--3--3--3--
E|--0--3p0--5--5--5--5-----------------



E|-----------------------------------------------------------------------------------------------
B|----------------2------------------------------------------------------------------------------
G|----------------2-----------2/4\2--------------4--6--5--4--2--4--2-----------4--2--------------
D|-----------2h4---------------------4--------------------------------4--2--4--4--2--------------
A|--4--4--4----------4--4--4------------4--4--4--------------------------------------4--4--4-----
E|--2--2--2----------2--2--2------------2--2--2--------------------------------------2--2--2-----



E|--------5--7--5-------------------------------------------------------------------------------
B|--5--7-----------7--5-------------------------------------------------------------------------
G|-----------------------6--5--4--2--4--2-------------------------------------------------------
D|-----------------------------------------4--2-------------------------------------------------
A|-----------------------------------------------4--4--4----4-------4----4--------4-------4-----
E|-----------------------------------------------2--2--2/9--2/14\9--2/9--2--14\9--2/14\9--2-----



E|----------------------------------------
B|----------------------------------------
G|----------------------------------------
D|----------------------------------------
A|--4-------4--4-------10--7--4--4--4--4--
E|--2/14\9--2--2/14\9--8---5--2--2--0--2--



E|-------------------------------------------------2--
B|-------------------------------------------------2--
G|-------------------------------------------------3--
D|-------------------------------------------------4--
A|--4--11--4--16--11--4--11--4--16--11--4--16--11--4--
E|--2--9---2--14--9---2--9---2--14--9---2--14--9---2--
http://www.guitartabcreator.com
Guitar Tab Creator is intended to store guitar tab created through the tool. It currently does not support in-line text editing. Any text you place in here will be lost. If you need to comment on your tab, please use the "Tab Notes" section located below.