rock on good people

(/) Slide Up  (\) Slide Down  (h) Hammer On  (p) Pull Off  (b) Bend (r) Release (v) Vibrato

E|--------------------------------------
B|--------------------------------------
G|--------------------------------------
D|--------------------------------------
A|--2-------2--2-------2-------7--5--2--
E|--0--3p0--0--0--3p0--0--3p0--5--3--0--



E|-------------7--7--------------------
B|-------------7--7-----5--5--5--5--5--
G|-------------7--7-----5--5--5--5--5--
D|-------------7--7-----5--5--5--5--5--
A|--2-------7--7--7--7--3--3--3--3--3--
E|--0--3p0--5--5--5--5-----------------



E|-----------------------
B|-----------------------
G|-----------------------
D|-----------------------
A|--2--5--7--8--7--5--2--
E|--0--3--5--6--5--3--0--



E|-----3--5-----
B|-----3--5-----
G|--1--4--6-----
D|--2--5--7-----
A|--2--5--7-----
E|--0--3--5-----



E|------------------------------------
B|------------------------------------
G|--12--11--9-------------------------
D|-------------12--9------------------
A|--------------------12--10----------
E|----------------------------12--10--
http://www.guitartabcreator.com
Guitar Tab Creator is intended to store guitar tab created through the tool. It currently does not support in-line text editing. Any text you place in here will be lost. If you need to comment on your tab, please use the "Tab Notes" section located below.