rock on

(/) Slide Up  (\) Slide Down  (h) Hammer On  (p) Pull Off  (b) Bend (r) Release (v) Vibrato


E|---------------------------------------------------------------
B|-----------0-----------3------------8-----------7-----------5--
G|--------1-----------4------------9-----------8-----------6-----
D|-----2-----------5-----------10-----------9-----------7--------
A|--2-----------3------------------------------------------------
E|--------------------------8------------7-----------5-----------



E|------------------
B|------------------
G|------------------
D|------------------
A|--2--5--10--9--7--
E|--0--3--8---7--5--



E|--0--3--8---7--5--
B|--0--3--8---7--5--
G|--1--4--9---8--6--
D|--2--5--10--9--7--
A|--2--5--10--9--7--
E|--0--3--8---7--5--



E|--
B|--
G|--
D|--
A|--
E|--
http://www.guitartabcreator.com
Guitar Tab Creator is intended to store guitar tab created through the tool. It currently does not support in-line text editing. Any text you place in here will be lost. If you need to comment on your tab, please use the "Tab Notes" section located below.