DethkloK- The Hammer

(/) Slide Up  (\) Slide Down  (h) Hammer On  (p) Pull Off  (b) Bend (r) Release (v) Vibrato


E|---------------------------------------
B|---------------------------------------
G|--9--11--11--12--12--16--16--8--8--11--
D|---------------------------------------
A|--7--9---9---10--10--14--14--6--6--9---
E|---------------------------------------



E|--------------------------------
B|--------------------------------
G|--4--5--5--4--4--7--7--4--5--4--
D|--------------------------------
A|--2--3--3--2--2--5--5--2--3--2--
E|--------------------------------



E|--
B|--
G|--
D|--
A|--
E|--
http://www.guitartabcreator.com
Guitar Tab Creator is intended to store guitar tab created through the tool. It currently does not support in-line text editing. Any text you place in here will be lost. If you need to comment on your tab, please use the "Tab Notes" section located below.