Crush The Industry

(/) Slide Up  (\) Slide Down  (h) Hammer On  (p) Pull Off  (b) Bend (r) Release (v) Vibrato
E|---------------------------------------------------------------
B|---------------------------------------------------------------
G|---------------------------------------------------------------
D|---------------------------------------------------------------
A|------------------------------------2-----3--5--7--------------
E|--10\\0--0--3--0--5--7--8--0--0--0-----0-----------0--0--0-----



E|--0--0--0--12--0--0--10--0--0--12--0--0--7--0--0--8--0--0--7--5--0--0--
B|-----------------------------------------------------------------------
G|-----------------------------------------------------------------------
D|-----------------------------------------------------------------------
A|-----------------------------------------------------------------------
E|-----------------------------------------------------------------------



E|-----------------
B|-----------------
G|-----------------
D|-----------------
A|-----------------
E|--0--0--0--0--0--



E|--7--5--3--
B|--8--7--5--
G|--9--7--5--
D|--9--7--5--
A|--7--5--3--
E|-----------



E|--------------------------------------------------------
B|--------------------------------------------------------
G|--------------------------------------------------------
D|--------------------------------------------------------
A|--------------------------------2-----3--5--7-----------
E|--0--0--3--0--5--7--8--0--0--0-----0-----------0--0--0--



E|-----------------------------
B|-----------------------------
G|-----------------------------
D|-----------------------------
A|--6--9--7--10-----10-----10--
E|---------------8------7------



E|--------------
B|--------------
G|--------------
D|--------5-----
A|--5--4--3--4--
E|--3--2-----2--



E|--------------------------------------------------------------------------
B|--------------------------------------------------------------------------
G|--------------------------------------------------------------------------
D|--4--4--4-----------9--9--9--------5--4--4--4--------------------------5--
A|--2--2--2--7--5--4--7--7--7--5--5--3--2--2--2--7--5--4--2--2--2--5--5--3--
E|-----------5--3--2-----------3--3--------------5--3--2--0--0--0--3--3-----



E|--------------------------------------------------------------------------
B|--------------------------------------------------------------------------
G|--------------------------------------------------------------------------
D|--4--4--4-----------9--9--9--------5--4--4--4--------------------------2--
A|--2--2--2--7--5--4--7--7--7--5--5--3--2--2--2--7--5--4--2--2--2--2--2--2--
E|-----------5--3--2-----------3--3--------------5--3--2--0--0--0--0--0--0--



E|-----
B|-----
G|-----
D|-----
A|--2--
E|--0--



E|-----------------
B|-----------------
G|-----------------
D|-----------------
A|-----------------
E|--0--0--0--0--0--



E|-----
B|-----
G|-----
D|--2--
A|--2--
E|--0--
http://www.guitartabcreator.com
Guitar Tab Creator is intended to store guitar tab created through the tool. It currently does not support in-line text editing. Any text you place in here will be lost. If you need to comment on your tab, please use the "Tab Notes" section located below.