Random

(/) Slide Up  (\) Slide Down  (h) Hammer On  (p) Pull Off  (b) Bend (r) Release (v) Vibrato


E|-----2-----2-----4-----4-----5-----5--
B|--2-----2-----2-----2-----2-----2-----
G|--------------------------------------
D|--------------------------------------
A|--------------------------------------
E|--------------------------------------



E|-----5-----5-----4-----4-----2-----2--
B|--0-----0-----0-----0-----0-----0-----
G|--------------------------------------
D|--------------------------------------
A|--------------------------------------
E|--------------------------------------



E|-----2-----2-----4-----4-----5-----5--
B|--3-----3-----3-----3-----3-----3-----
G|--------------------------------------
D|--------------------------------------
A|--------------------------------------
E|--------------------------------------



E|--------------------------------------
B|--5--3--2-----------------------------
G|-----------4--2--1--------------------
D|--------------------4--2--------------
A|--------------------------5--3--2-----
E|-----------------------------------5--
http://www.guitartabcreator.com
Guitar Tab Creator is intended to store guitar tab created through the tool. It currently does not support in-line text editing. Any text you place in here will be lost. If you need to comment on your tab, please use the "Tab Notes" section located below.