Happy Day - Lead Theme

(/) Slide Up  (\) Slide Down  (h) Hammer On  (p) Pull Off  (b) Bend (r) Release (v) Vibrato


E|-----------------------------------------------------8-----8-----8-----8-----8-----8-----8-----
B|-----8-----8-----8-----8-----8-----8-----8-----8--8-----8-----8-----8-----8-----8-----8--------
G|--7-----7-----7-----7-----7-----7-----7-----7--------------------------------------------------
D|-----------------------------------------------------------------------------------------------
A|-----------------------------------------------------------------------------------------------
E|-----------------------------------------------------------------------------------------------



E|-----8-----7-----7-----7-----7-----7-----7-----7-----7------10------10------10------10------10--
B|--8-----8-----8-----8-----8-----8-----8-----8-----8-----10------10------10------10------10------
G|------------------------------------------------------------------------------------------------
D|------------------------------------------------------------------------------------------------
A|------------------------------------------------------------------------------------------------
E|------------------------------------------------------------------------------------------------



E|------10------10------10--
B|--10------10------10------
G|--------------------------
D|--------------------------
A|--------------------------
E|--------------------------
http://www.guitartabcreator.com
Guitar Tab Creator is intended to store guitar tab created through the tool. It currently does not support in-line text editing. Any text you place in here will be lost. If you need to comment on your tab, please use the "Tab Notes" section located below.