melt - hatsune miku (bass)

(/) Slide Up  (\) Slide Down  (h) Hammer On  (p) Pull Off  (b) Bend (r) Release (v) Vibrato


E|---------------------------------------------------------------------
B|---------------------------------------------------------------------
G|---------------------------------------------------------------------
D|-------------------------------------------------------------0-0-0-0-
A|-------------------0-0-0-0-2-2-2-2-------------------0-0-0-0---------
E|--2-2-2-2-3-3-3-3-------------------2-2-2-2-3-3-3-3------------------


E|-------------------------------------------------------
B|-------------------------------------------------------
G|----------------2--4-4-7------------3-3-3-3-3-3-3-3--5-
D|----2-4-4-5-5-5----------------------------------------
A|--5----------------------4-5-5-5-5---------------------
E|-------------------------------------------------------

Refrain:

E|---------------------------------------------------------------------
B|---------------------------------------------------------------------
G|---------------------------------------------------------------------
D|-------------------------------------------------------------0-0-0-0-
A|-------------------0-0-0-0-2-2-2-2-------------------0-0-0-0---------
E|--2-2-2-2-3-3-3-3-------------------2-2-2-2-3-3-3-3------------------

E|---------------------------------------------------------------------
B|---------------------------------------------------------------------
G|----------------2--4-4-7------------3-3-3-3-3-3-3-3--5-5-5-5-5-5-5-5-
D|----2-4-4-5-5-5------------------------------------------------------
A|--5----------------------4-5-5-5-5-----------------------------------
E|---------------------------------------------------------------------

Verse 1:

E|----------------------------------------------------------------------
B|----------------------------------------------------------------------
G|----------------------------------------------------------------------
D|----------------------------------------------------------------------
A|--5-5-5-5-5-5-5-5--5-5-5-5-5-5-5-5--5-5-5-5-5-5-5-5--4-4-4-4-4-4-4-4--
E|----------------------------------------------------------------------

E|----------------------------------------------------------------------
B|----------------------------------------------------------------------
G|----------------------------------------------------------------------
D|----------------------------------------------------------------------
A|--2-2-2-2-------------------------------------------------------------
E|----------5-5-5-5--3-3-3-3-2-2-2-2--3-3-3-3-3-3-3-3--5-5-5-5-5-5-5-5--

Verse 2:

E|----------------------------------------------------------------------
B|----------------------------------------------------------------------
G|----------------------------------------------------------------------
D|----------------------------------------------------------------------
A|--5-5-5-5-5-5-5-5--5-5-5-5-5-5-5-5--5-5-5-5-5-5-5-5--4-4-4-4-4-4-4-4--
E|----------------------------------------------------------------------

E|----------------------------------------------------------------------
B|----------------------------------------------------------------------
G|----------------------------------------------------------------------
D|----------------------------------------------------------------------
A|--2-2-2-2-------------------------------------------------------------
E|----------5-5-5-5--3-3-3-3-2-2-2-2--3-3-3-3-3-3-3-3--5-5-5-5-6-6-6-6--

Pre-Chorus

E|--------------------------
B|--------------------------
G|--------------------------
D|--------------------------
A|--2-----4-----5-----------
E|--------------------3-----

E|----------------------------------------------------------------------
B|----------------------------------------------------------------------
G|----------------------------------------------------------------------
D|----------------------------------------------------------------------
A|----------------------------------------------------------------------
E|--5-5-5-5-5-5-5-5--5-5-5-5-2-2-2-2--3-3-3-3-5-5-5-5--6-6-6-6-7-7-7-7--

E|------------------------------------------------------------
B|------------------------------------------------------------
G|------------------------------------------------------------
D|------------------------------------------------------------
A|------------------------------------------------------------
E|--3-3-3-3-3-3-3-3--3-3-3-3-3-3-3-3--5-5-5-5-5-5-5-5--2\-----

Chorus:

E|----------------------------------------------------------------------
B|----------------------------------------------------------------------
G|----------------------------------------------------------------------
D|----------------------------------------------------------------------
A|------------------------------------5-5-5-5-5-5-5-5--5-5-5-5-4-4-4-4--
E|--3-3-3-3-3-3-3-3--3-3-3-3-3-3-3-3------------------------------------

E|----------------------------------------------------------------------
B|----------------------------------------------------------------------
G|----------------------------------------------------------------------
D|----------------------------------------------------------------------
A|--2-2-2-2-2-2-2-2-----------------------------------------------------
E|-------------------3-3-3-3-3-3-3-3--5-5-5-5-5-5-5-5--5-5-5-5-2-2-2-2--

E|----------------------------------------------------------------------
B|----------------------------------------------------------------------
G|----------------------------------------------------------------------
D|----------------------------------------------------------------------
A|------------------------------------5-5-5-5-5-5-5-5--5-5-5-5-4-4-4-4--
E|--3-3-3-3-3-3-3-3--3-3-3-3-3-3-3-3------------------------------------

E|----------------------------------------------------------------------
B|----------------------------------------------------------------------
G|----------------------------------------------------------------------
D|----------------------------------------------------------------------
A|--2-2-2-2-2-2-2-2-----------------------------------------------------
E|-------------------5-5-5-5-5-5-5-5--3-3-3-3-3-3-3-3--3-3-3-3-3-3-3-3--

E|-----------------------------------------------------------
B|-----------------------------------------------------------
G|-----------------------------------------------------------
D|-----------------------------------------------------------
A|-----------------------------------------------------------
E|--0-0-0-0-0-0-0-0--2-2-2-2-2-2-2-2--3-3-3-3-3-3-3-3--5-----

Refrain:

E|----------------------------------------------------------------------
B|----------------------------------------------------------------------
G|----------------------------------------------------------------------
D|-------------------------------------------------------------0-0-0-0--
A|-------------------0-0-0-0-2-2-2-2-------------------0-0-0-0----------
E|--2-2-2-2-3-3-3-3-------------------2-2-2-2-3-3-3-3-------------------

E|----------------------------------------------------------------------
B|----------------------------------------------------------------------
G|----------------2--4-4-7------------3-3-3-3-3-3-3-3--5-5-5-5-5-5-5-5--
D|----2-4-4-5-5-5-------------------------------------------------------
A|--5----------------------4-5-5-5-5------------------------------------
E|----------------------------------------------------------------------

Verse 1:

E|----------------------------------------------------------------------
B|----------------------------------------------------------------------
G|----------------------------------------------------------------------
D|----------------------------------------------------------------------
A|--5-5-5-5-5-5-5-5--5-5-5-5-5-5-5-5--5-5-5-5-5-5-5-5--4-4-4-4-4-4-4-4--
E|----------------------------------------------------------------------

E|----------------------------------------------------------------------
B|----------------------------------------------------------------------
G|----------------------------------------------------------------------
D|----------------------------------------------------------------------
A|--2-2-2-2-------------------------------------------------------------
E|----------5-5-5-5--3-3-3-3-2-2-2-2--3-3-3-3-3-3-3-3--5-5-5-5-5-5-5-5--

Verse 2:

E|----------------------------------------------------------------------
B|----------------------------------------------------------------------
G|----------------------------------------------------------------------
D|----------------------------------------------------------------------
A|--5-5-5-5-5-5-5-5--5-5-5-5-5-5-5-5--5-5-5-5-5-5-5-5--4-4-4-4-4-4-4-4--
E|----------------------------------------------------------------------

E|----------------------------------------------------------------------
B|----------------------------------------------------------------------
G|----------------------------------------------------------------------
D|----------------------------------------------------------------------
A|--2-2-2-2-------------------------------------------------------------
E|----------5-5-5-5--3-3-3-3-2-2-2-2--3-3-3-3-3-3-3-3--5-5-5-5-6-6-6-6--

Pre-Chorus:

E|---------------------------------------------------------
B|---------------------------------------------------------
G|---------------------------------------------------------
D|---------------------------------------------------------
A|--2-----4-----5------------------------------------------
E|--------------------3--5-5-5-5-5-5-5-5--5-5-5-5-2-2-2-2--

E|----------------------------------------------------------------------
B|----------------------------------------------------------------------
G|----------------------------------------------------------------------
D|----------------------------------------------------------------------
A|----------------------------------------------------------------------
E|--3-3-3-3-5-5-5-5--6-6-6-6-7-7-7-7--3-3-3-3-3-3-3-3--3-3-3-3-3-3-3-3--

E|--------------------------
B|--------------------------
G|--------------------------
D|--------------------------
A|--------------------------
E|--5-5-5-5-5-5-5-5--2\-----

Chorus:

E|----------------------------------------------------------------------
B|----------------------------------------------------------------------
G|----------------------------------------------------------------------
D|----------------------------------------------------------------------
A|------------------------------------5-5-5-5-5-5-5-5--5-5-5-5-4-4-4-4--
E|--3-3-3-3-3-3-3-3--3-3-3-3-3-3-3-3------------------------------------

E|----------------------------------------------------------------------
B|----------------------------------------------------------------------
G|----------------------------------------------------------------------
D|----------------------------------------------------------------------
A|--2-2-2-2-2-2-2-2-----------------------------------------------------
E|-------------------3-3-3-3-3-3-3-3--5-5-5-5-5-5-5-5--5-5-5-5-2-2-2-2--

E|----------------------------------------------------------------------
B|----------------------------------------------------------------------
G|----------------------------------------------------------------------
D|----------------------------------------------------------------------
A|------------------------------------5-5-5-5-5-5-5-5--5-5-5-5-4-4-4-4--
E|--3-3-3-3-3-3-3-3--3-3-3-3-3-3-3-3------------------------------------

E|----------------------------------------------------------------------
B|----------------------------------------------------------------------
G|----------------------------------------------------------------------
D|----------------------------------------------------------------------
A|--2-2-2-2-2-2-2-2-----------------------------------------------------
E|-------------------5-5-5-5-5-5-5-5--3-3-3-3-3-3-3-3--3-3-3-3-3-3-3-3--

E|--------------------------------------------------------
B|--------------------------------------------------------
G|--------------------------------------------------------
D|--------------------------------------------------------
A|--------------------------------------------------------
E|--0-0-0-0-0-0-0-0--2-2-2-2-2-2-2-2--3-3-3-3-3-3-3-3--5--

Pre-Solo:

E|------------------------------------
B|------------------------------------
G|------------------------------------
D|------------------------------------
A|------------------------------------
E|--5-5-5-5-5-5-5-5--5-5-5-5-7-7-9-9--

Solo:

E|----------------------------------------------------------------------
B|----------------------------------------------------------------------
G|----------------------------------------------------------------------
D|----------------------------------------------------------------------
A|----------------------------------------------------------------------
E|--3-3-3-3-3-3-3-3--3-3-3-3-5-5-5-5--2-2-2-2-2-2-2-2--2-2-2-2-2-2-2-2--

E|----------------------------------------------------------------------
B|----------------------------------------------------------------------
G|----------------------------------------------------------------------
D|----------------------------------------------------------------------
A|----------------------------------------------------------------------
E|--3-3-3-3-3-3-3-3--3-3-3-3-5-5-5-5--7-7-7-7-7-7-7-7--7-7-7-7-5-5-5-5--

E|----------------------------------------------------------------------
B|----------------------------------------------------------------------
G|----------------------------------------------------------------------
D|----------------------------------------------------------------------
A|----------------------------------------------------------------------
E|--3-3-3-3-3-3-3-3--3-3-3-3-5-5-5-5--2-2-2-2-2-2-2-2--2-2-2-2-2-2-2-2--

E|----------------------------------------------------------
B|----------------------------------------------------------
G|----------------------------------------------------------
D|----------------------------------------------------------
A|----------------------------------------------------------
E|--3-3-3-3-3-3-3-3--3-3-3-3-5-5-5-5--7----7----7~~---7-----

Refrain:
Chorus:

E|----------------------------------------------------------------------
B|----------------------------------------------------------------------
G|----------------------------------------------------------------------
D|----------------------------------------------------------------------
A|------------------------------------5-5-5-5-5-5-5-5--5-5-5-5-4-4-4-4--
E|--3-3-3-3-3-3-3-3--3-3-3-3-3-3-3-3------------------------------------

E|----------------------------------------------------------------------
B|----------------------------------------------------------------------
G|----------------------------------------------------------------------
D|----------------------------------------------------------------------
A|--2-2-2-2-2-2-2-2-----------------------------------------------------
E|-------------------3-3-3-3-3-3-3-3--5-5-5-5-5-5-5-5--5-5-5-5-2-2-2-2--

E|----------------------------------------------------------------------
B|----------------------------------------------------------------------
G|----------------------------------------------------------------------
D|----------------------------------------------------------------------
A|------------------------------------5-5-5-5-5-5-5-5--5-5-5-5-4-4-4-4--
E|--3-3-3-3-3-3-3-3--3-3-3-3-3-3-3-3------------------------------------

E|----------------------------------------------------------------------
B|----------------------------------------------------------------------
G|----------------------------------------------------------------------
D|----------------------------------------------------------------------
A|--2-2-2-2-2-2-2-2-----------------------------------------------------
E|-------------------5-5-5-5-5-5-5-5--3-3-3-3-3-3-3-3--3-3-3-3-3-3-3-3--

E|--------------------------------------------------------
B|--------------------------------------------------------
G|--------------------------------------------------------
D|--------------------------------------------------------
A|--------------------------------------------------------
E|--0-0-0-0-0-0-0-0--2-2-2-2-2-2-2-2--3-3-3-3-3-3-3-3--5--

Refrain:

E|----------------------------------------------------------------------
B|----------------------------------------------------------------------
G|----------------------------------------------------------------------
D|-------------------------------------------------------------0-0-0-0--
A|-------------------0-0-0-0-2-2-2-2-------------------0-0-0-0----------
E|--2-2-2-2-3-3-3-3-------------------2-2-2-2-3-3-3-3-------------------

E|------------------------------------
B|------------------------------------
G|----------------2--4-4-7------------
D|----2-4-4-5-5-5---------------------
A|--5----------------------4-5-5-5-5--
E|------------------------------------

E|--------------------------------------------
B|--------------------------------------------
G|--3-3-3-3-3-3-3-3--5-5-5-5-5-5-5-5~~---7~~--
D|--------------------------------------------
A|---------------------------------------5----
E|--------------------------------------------

http://www.guitartabcreator.com
Guitar Tab Creator is intended to store guitar tab created through the tool. It currently does not support in-line text editing. Any text you place in here will be lost. If you need to comment on your tab, please use the "Tab Notes" section located below.