Alchemy - GirlsDeMo

(/) Slide Up  (\) Slide Down  (h) Hammer On  (p) Pull Off  (b) Bend (r) Release (v) Vibrato

E|----|----|----|----|----|----|--------------------|-----------------------|--
B|----|----|----|----|----|----|--------------------|-----------------------|--
G|----|----|----|----|----|----|--------------------|-----------------------|--
D|----|----|----|----|----|----|--------------------|-----------------------|--
A|----|----|----|----|----|----|-----------9--------|--------4--6--4--------|--
E|----|----|----|----|----|----|------0/8-----8--6--|--4--6-----------6--4--|--



E|--------------------------|--------------------------|--------------------------
B|--------------------------|--------------------------|--------------------------
G|--------------------------|--------------------------|--------------------------
D|--------------------------|--------------------------|--------------------------
A|--3--3--3--3--3--3--3--3--|--3--3--3--3--3--3--3--3--|--3--3--3--3--3--3--3--3--
E|--------------------------|--------------------------|--------------------------



E|--------------------------|--------------------------|-------------------------
B|--------------------------|--------------------------|-------------------------
G|--------------------------|--------------------------|-------------------------
D|--------------------------|--------------------------|-------------------------
A|--1--1--1--1--1--1--1--1--|--3--3--3--3--3--3--3--3--|--3--3--3--3--3--6\5-----
E|--------------------------|--------------------------|----------------------8--



E|--------------------------|--------------------------|-----------------------------
B|--------------------------|--------------------------|-----------------------------
G|--------------------------|--------------------------|-----------------------------
D|--------------------------|--------------------------|-----------------------------
A|--------------------------|--------6-----------------|--3--3--3--3--3--3--3--3-----
E|--6--6--6--6--6--6--6--6--|--6--6-----6--6--6--6--6--|-----------------------------



E|--------------------------|--------------------------|--------------------------
B|--------------------------|--------------------------|--------------------------
G|--------------------------|--------------------------|--------------------------
D|--------------------------|--------------------------|--------------------------
A|--3--3--3--3--3--3--3--3--|--3--3--3--3--3--3--3--3--|--1--1--1--1--1--1--1--1--
E|--------------------------|--------------------------|--------------------------



E|--------------------------|---------------------------|--------------------------
B|--------------------------|---------------------------|--------------------------
G|--------------------------|---------------------------|--------------------------
D|--------------------------|---------------------------|--------------------------
A|--------------------------|---------------------------|--------------------------
E|--6--6--6--6--6--6--6--6--|--/8--8--8--8--8--8--8--8--|--6--6--6--6--6--6--6--6--



E|----------------------------|-------------------------|-----------------------------
B|----------------------------|-------------------------|-----------------------------
G|----------------------------|-------------------------|-----------------------------
D|----------------------------|-------------------------|-----------------------------
A|----------------------------|--6\6--6--6--6--6--6--6--|-----------------------------
E|--6\5--5--5--5--5--5--5--5--|-------------------------|--8--8--8--8--8--8--8--8-----



E|--------------------------|--------------------------|--------------------------
B|--------------------------|--------------------------|--------------------------
G|--------------------------|--------------------------|--------------------------
D|--------------------------|--------------------------|--------------------------
A|--------------------------|--------------------------|--------------------------
E|--6--6--6--6--6--6--6--6--|--7--7--7--7--7--7--7--7--|--8--8--8--8--6--8--8--8--



E|--------------------------------|---------------------|------------------------
B|--------------------------------|---------------------|------------------------
G|--------------------------------|---------------------|------------------------
D|--------------------------------|---------------------|------------------------
A|--13\13--13--13--13--13--13-----|---------------------|------------3--3--3-----
E|-----------------------------7--|--7----3----3--3--5--|----5--5----------------



E|--------------------------|--------------------------|------------------------
B|--------------------------|--------------------------|------------------------
G|--------------------------|--------------------------|------------------------
D|--------------------------|--------------------------|------------------------
A|--------------------------|--------------3--3--3-----|------------------------
E|--7--7--7--7--3--3--3--3--|--5--5--5--5-----------7--|--7----3----3--3--5-----



E|---------------------|--------------------------|-----------------------------
B|---------------------|--------------------------|-----------------------------
G|---------------------|--------------------------|-----------------------------
D|---------------------|--------------------------|-----------------------------
A|------------3--3--3--|--------------------------|-----------------------------
E|----5--5-------------|--7--7--7--7--3--3--3--3--|--3--3--3--3--3--3--3--5-----



E|--------------------------|-------------------------------|--------------------------
B|--------------------------|-------------------------------|--------------------------
G|--------------------------|-------------------------------|--------------------------
D|--------------------------|-------------------------------|--------------------------
A|----------------------10--|--\10--10--10--10--10--10--10--|--------------------------
E|----5--5--5--5--5--5------|-------------------------------|--8--8--8--8--4--4--4--4--



E|--------------------------|--------------------------|--------------------------
B|--------------------------|--------------------------|--------------------------
G|--------------------------|--------------------------|--------------------------
D|--------------------------|--------------------------|--------------------------
A|--------------4--4--4--4--|--------------------------|--4--4--4--4--------------
E|--6--6--6--6--------------|--8--8--8--8--4--4--4--4--|--------------6--6--6--6--



E|--------------------------|--------------------------|-----------------------------
B|--------------------------|--------------------------|-----------------------------
G|--------------------------|--------------------------|-----------------------------
D|--------------------------|--------------------------|-----------------------------
A|--------------------------|--4--4--4--4--------------|-----------------------------
E|--8--8--8--8--4--4--4--4--|--------------6--6--6--6--|--8--8--8--8--4--4--4--4-----



E|-------------------------|--------------------------|--------------------------
B|-------------------------|--------------------------|--------------------------
G|-------------------------|--------------------------|--------------------------
D|-------------------------|--------------------------|--------------------------
A|--4--4--4----------------|--------------------------|--------------4--4--4--4--
E|-----------6----6--6--6--|--8--8--8--8--4--4--4--4--|--6--6--6--6--------------



E|--------------------------|--------------------------|--------------------------
B|--------------------------|--------------------------|--------------------------
G|--------------------------|--------------------------|--------------------------
D|--------------------------|--------------------------|--------------------------
A|--------------------------|--4--4--4--4--------------|--------------------------
E|--8--8--8--8--4--4--4--4--|--------------6--6--6--6--|--8--8--8--8--4--4--4--4--



E|--------------------------|-------------------------|----------------------
B|--------------------------|-------------------------|----------------------
G|--------------------------|-------------------------|----------------------
D|--------------------------|-------------------------|----------------------
A|--4--4--4--4--------------|---------9----9----9--9--|--9-------------------
E|--------------6--6--6--6--|--4----------------------|-----------4/16\4-----



E|------------------------|------------------|------------------------
B|------------------------|------------------|------------------------
G|------------------------|------------------|------------------------
D|------------------------|------------------|------------------------
A|------------------------|----------4----3--|------------------------
E|--8--8----4--4----6--6--|----6--6----------|--8--8----4--4----6--6--



E|---------------------|------------------------|--------------------|------------------------
B|---------------------|------------------------|--------------------|------------------------
G|---------------------|------------------------|--------------------|------------------------
D|---------------------|------------------------|--------------------|------------------------
A|---------------------|------------------------|------------4----3--|------------------------
E|----6--6--5--6----6--|--8--8----4--4----6--6--|----6--6------------|--8--8----4--4----6--6--



E|---------------------
B|---------------------
G|---------------------
D|---------------------
A|---------------------
E|----6--6--5--6----6--



E|-----------------------|-------------------------|----------------------
B|-----------------------|-------------------------|----------------------
G|-----------------------|-------------------------|----------------------
D|-----------------------|-------------------------|----------------------
A|--4--4--4--4--------8--|--9------9----9----9--9--|--9-------------------
E|--------------6--6-----|-------------------------|-----------4/16\4-----



E|--------------------------|--------------------------|--------------------------
B|--------------------------|--------------------------|--------------------------
G|--------------------------|--------------------------|--------------------------
D|--------------------------|--------------------------|--------------------------
A|--------------------------|--------------------------|--------------------------
E|--8--8--8--8--8--8--8--8--|--7--7--7--7--7--7--7--7--|--6--6--6--6--6--6--6--6--



E|--------------------------|--------------------------|--------------------------
B|--------------------------|--------------------------|--------------------------
G|--------------------------|--------------------------|--------------------------
D|--------------------------|--------------------------|--------------------------
A|--------------------------|--------------------------|--------------------------
E|--5--5--5--5--5--5--5--5--|--4--4--4--4--4--4--4--4--|--4--4--4--4--4--4--4--4--



E|-----------------------------
B|-----------------------------
G|-----------------------------
D|-----------------------------
A|-----------------------------
E|--6--6--6--6--6--6--6--6-----



E|-----------------------|---------------------|-----------------|--------------------------
B|-----------------------|---------------------|-----------------|--------------------------
G|-----------------------|---------------------|-----------------|--------------------------
D|--6\6------------------|---------------------|-----------------|--------------------------
A|-------9--8--6---------|---------------------|--------3--3--3--|--------------------------
E|--------------------7--|--7----3----3--3--5--|--5--5-----------|--7--7--7--7--3--3--3--3--



E|--------------------------|---------------------|-------------------
B|--------------------------|---------------------|-------------------
G|--------------------------|---------------------|-------------------
D|--------------------------|---------------------|-------------------
A|--------------3--3--3-----|---------------------|----------3--3--3--
E|--5--5--5--5-----------7--|--7----3----3--3--5--|--5--5-------------



E|--------------------------|--------------------------|-----------------------|--
B|--------------------------|--------------------------|-----------------------|--
G|--------------------------|--------------------------|-----------------------|--
D|--------------------------|--------------------------|-----------------------|--
A|--------------------------|--------------------------|--------------------10\|--
E|--7--7--7--7--3--3--3--3--|--3--3--3--3--3--3--3--5--|--5--5--5--5--5--5-----|--



E|------------------------------|--
B|------------------------------|--
G|------------------------------|--
D|------------------------------|--
A|--10--10--10--10--10--10--10--|--
E|------------------------------|--



E|--
B|--
G|--
D|--
A|--
E|--
http://www.guitartabcreator.com
Guitar Tab Creator is intended to store guitar tab created through the tool. It currently does not support in-line text editing. Any text you place in here will be lost. If you need to comment on your tab, please use the "Tab Notes" section located below.