flag in the ground

(/) Slide Up  (\) Slide Down  (h) Hammer On  (p) Pull Off  (b) Bend (r) Release (v) Vibrato

E|--12--12--14--14--15\14--12--10------10-----------------------------------------------------10--
B|---------------------------------12------10--8/10--10--10--12\10----------------12--10--12------
G|------------------------------------------------------------------12--9--12--12/----------------
D|------------------------------------------------------------------------------------------------
A|------------------------------------------------------------------------------------------------
E|------------------------------------------------------------------------------------------------



E|--------------------------------------------------------------------------------------------------------------------------------------------------------------------
B|--------------------------------------------------------------------------------------------------------------------------------------------------------------------
G|--9--9--11--12--11--9-----------------------------------------------------7--9--9--11--12--11--9-----------------------------------------------------7--9--9--------
D|-----------------------12--9--12------7--7--9--7-----------------9--7--9--------------------------12--9--12------7--7--9--7-----------------9--7--9-----------9--7--
A|----------------------------------12--------------10--7--10--10----------------------------------------------12--------------10--7--10--10--------------------------
E|--------------------------------------------------------------------------------------------------------------------------------------------------------------------
http://www.guitartabcreator.com
Guitar Tab Creator is intended to store guitar tab created through the tool. It currently does not support in-line text editing. Any text you place in here will be lost. If you need to comment on your tab, please use the "Tab Notes" section located below.