Where Is My Mind

(/) Slide Up  (\) Slide Down  (h) Hammer On  (p) Pull Off  (b) Bend (r) Release (v) Vibrato
E|--------------|--------------|--------------|--------------|---------------|---------------
B|-----9-----9--|-----9-----9--|-----9-----9--|-----9-----9--|-----9------9--|-----9------9--
G|--9-----9-----|--9-----9-----|--9-----9-----|--9-----9-----|--9-----9------|--9-----9------
D|--------------|--------------|--------------|--------------|--------9------|--------11-----
A|--------------|--------------|--------------|--------------|--------11-----|--------11-----
E|--0-----------|--------------|--------------|--------------|--0------------|--9------------



E|----------4---|------------4-|--------------|--------------|-----------4---|-------------
B|----9--4----4-|---------5----|----9------9--|----9------9--|-----9--4----4-|-------5-----
G|-8-----5------|--9--9-8-6----|-9-----9------|-9-----9------|--8-----5------|-9-9-8-6-----
D|-6-----6------|--7------7----|-------9------|-------11-----|--6-----6------|-7-----7-----
A|--------------|--------------|-------11-----|-------11-----|---------------|---------7---
E|--------------|--------------|-0------------|-9------------|---------------|-------------
http://www.guitartabcreator.com
Guitar Tab Creator is intended to store guitar tab created through the tool. It currently does not support in-line text editing. Any text you place in here will be lost. If you need to comment on your tab, please use the "Tab Notes" section located below.