Pirates of the Caribbean- Simple Version

(/) Slide Up  (\) Slide Down  (h) Hammer On  (p) Pull Off  (b) Bend (r) Release (v) Vibrato

E|---------------------------------------------------------------------------------------
B|-------------------------5-6-6-6-8-5-5-----------------5-6-6-6-8-5-5-------------------
G|-----------------5-7-7-7---------------7-5-7---5-7-7-7---------------7-5-7---5-7-7-7---
D|---------------7-----------------------------7-----------------------------7-----------
A|-5-5-5-5-5-5-5-------------------------------------------------------------------------
E|---------------------------------------------------------------------------------------



E|--------------------------------------------------------------------------------
B|--5--8--8--8--10--11--11--10--8--10--------5--6--6--8--10--7-----5--7--5--------
G|-------------------------------------7--7---------------------7--------7--5--7--
D|--------------------------------------------------------------------------------
A|--------------------------------------------------------------------------------
E|--------------------------------------------------------------------------------
http://www.guitartabcreator.com
Guitar Tab Creator is intended to store guitar tab created through the tool. It currently does not support in-line text editing. Any text you place in here will be lost. If you need to comment on your tab, please use the "Tab Notes" section located below.