That's All Genesis

(/) Slide Up  (\) Slide Down  (h) Hammer On  (p) Pull Off  (b) Bend (r) Release (v) Vibrato

That's All Tab Genesis
Intro
E|----------3--0--0--2 E|----------3--0--0--2--------------0--
B|----------3--0--0--3 B|----------3--0--0--3--------------0--
G|----------0--0--0--2 X2, 3rd time-> G|----------0--0--0--2--------------0--
D|-----0h2--0--2--2--0 D|-----0h2--0--2--2--0-----2--0--2--2--
A|--2----------------- A|--2----------------------------------
E|-------------------- E|-------------------------------------
****************************************************************************************
(Not every verse is matched to the lyrics)

First Verse
E|----------3--3--0--0--2--2----- E|----------3--3--0--0--2--2-----------0--
B|----------3--3--0--0--3--3----- B|----------3--3--0--0--3--3-----------0--
G|----------0--0--0--0--2--2----- X2, 3rd time-> G|----------0--0--0--0--2--2-----------0--
D|-----0h2--0--0--2--2--0--0----- D|-----0h2--0--0--2--2--0--0--2--0--2--2--
A|--2---------------------------- A|--2-------------------------------------
E|------------------------------- E|----------------------------------------
Just as I thought it was goin' alright. | It's always the same, it's just a shame, Found out I'm wrong, when I thought I was right.| That's All.


**************
Second Verse
E|----------3--------2-- E|----------3----2-----------0--
B|----------1--------3-- B|----------1----3-----------0--
G|----------0--------2-- X2, 3rd time-> G|----------0----2-----------0--
D|-----0h2--2--------0-- D|-----0h2--2----0--2--0--2--2--
A|--2------------------- A|--2---------------------------
E|---------------------- E|------------------------------
I could say day, and you'd say night. | It's always the same, it's just a shame,
Tell me it's black, when I know that it's white. | That's All.



***************
Third Verse
E|--------3--------------------------3---------------------2--
B|--------3--------------------------1---------------------3--
G|--------0--------------------------0---------------------2--
D|--0--2--0--------------------------2---------------------0--
A|------------------------------------------------------------
E|------------------------------------------------------------
I could leave but I won't go, though my heart might tell me so.

E|-------3-------------------0------------2------(3--2)-
B|-------3-------------------1------------3-------------
G|-------0-------------------2------------2-------------
D|-------0-------------------2------------0-------------
A|------------------------------------------------------
E|------------------------------------------------------
I can't feel a thing from my head down to my toes.


********************************
Fourth Verse (same guitar as 1st)
E|----------3--3--0--0--2--2----- E|----------3--3--0--0--2--2-----------0--
B|----------3--3--0--0--3--3----- B|----------3--3--0--0--3--3-----------0--
G|----------0--0--0--0--2--2----- X2, 3rd time-> G|----------0--0--0--0--2--2-----------0--
D|-----0h2--0--0--2--2--0--0----- D|-----0h2--0--0--2--2--0--0--2--0--2--2--
A|--2---------------------------- A|--2-------------------------------------
E|------------------------------- E|----------------------------------------
Why does it always seem to be, | It's always the same, it's just a shame.
Me looking at you, you looking at me? | That's All.


*****************
Fifth Verse (1st)
E|----------3--3--0--0--2--2----- E|----------3--3--0--0--2--2-----------0--
B|----------3--3--0--0--3--3----- B|----------3--3--0--0--3--3-----------0--
G|----------0--0--0--0--2--2----- X2, 3rd time-> G|----------0--0--0--0--2--2-----------0--
D|-----0h2--0--0--2--2--0--0----- D|-----0h2--0--0--2--2--0--0--2--0--2--2--
A|--2---------------------------- A|--2-------------------------------------
E|------------------------------- E|----------------------------------------
Turnin' me on, turnin' me off, | Livin' with you's, just a puttin' me through it
Makin' me feel, like I want too much. | All of the time.


*****************
Sixth Verse (2nd)
E|----------3--------2-- E|----------3----2-----------0--
B|----------1--------3-- B|----------1----3-----------0--
G|----------0--------2-- X2, 3rd time-> G|----------0----2-----------0--
D|-----0h2--2--------0-- D|-----0h2--2----0--2--0--2--2--
A|--2------------------- A|--2---------------------------
E|---------------------- E|------------------------------
Runnin' around, stayin' out all night. | Livin' with you's, just a puttin' me through it
Takin' it all, 'stead of takin' one bite. | All of the time.

Verse 3 and 4 again
******************
Seventh Verse (3rd)
E|--------3--------------------------3----------2--
B|--------3--------------------------1----------3--
G|--------0--------------------------0----------2--
D|--0--2--0--------------------------2----------0--
A|-------------------------------------------------
E|-------------------------------------------------
I could leave but I won't go, It'll be easier I know.

E|-------3-------------------0------------2------(3--2)-
B|-------3-------------------1------------3-------------
G|-------0-------------------2------------2-------------
D|-------0-------------------2------------0-------------
A|------------------------------------------------------
E|------------------------------------------------------
I can't feel a thing from my head down to my toes.


******************
Eighth Verse (1st)
E|----------3--3--0--0--2--2----- E|----------3--3--0--0--2--2-----------0--
B|----------3--3--0--0--3--3----- B|----------3--3--0--0--3--3-----------0--
G|----------0--0--0--0--2--2----- X2, 3rd time-> G|----------0--0--0--0--2--2-----------0--
D|-----0h2--0--0--2--2--0--0----- D|-----0h2--0--0--2--2--0--0--2--0--2--2--
A|--2---------------------------- A|--2-------------------------------------
E|------------------------------- E|----------------------------------------
Why does it always seem to be, | It's always the same, it's just a shame.
Me looking at you, you looking at me? | That's All.


****************
Ninth Verse
E|--0--------------0----------------------0--------------------------0--
B|--1--------------1----------------------1--------------------------0--
G|--0--------------0----------------------0--------------------------0--
D|--2--------------2----------------------2--------------------------2--
A|--3--------------3----------------------3--------------------------2--
E|--0--------------0----------------------0--------------------------0--
Truth's I love you, more than I wanted to. There's no point in trying to pretend.

E|--0-------------------0--------------------------0---------------------0--
B|--1-------------------1--------------------------1---------------------0--
G|--0-------------------0--------------------------0---------------------0--
D|--2-------------------2--------------------------2---------------------2--
A|--3-------------------3--------------------------3---------------------2--
E|--0-------------------0--------------------------0---------------------0--
There's been no one who, makes me feel like you do. Say we'll be together till the end.

http://www.guitartabcreator.com
Guitar Tab Creator is intended to store guitar tab created through the tool. It currently does not support in-line text editing. Any text you place in here will be lost. If you need to comment on your tab, please use the "Tab Notes" section located below.