Sweet Dreams Am Stuff like Sweet Emotion

(/) Slide Up  (\) Slide Down  (h) Hammer On  (p) Pull Off  (b) Bend (r) Release (v) Vibrato


E|----------------------------------------------
B|----------------------------------------------
G|----------------------------------------------
D|------------------------17--17--17--17--14----
A|--14--14--14--14--14----15--15--15--15--12----
E|--12--12--12--12--12--------------------------



E|-----------------------------------------------
B|--------------------------------------------15b
G|--17--17--17--17--14----14--17--17--17--17--12-
D|--15--15--15--15--12----12--15--15--15--15-----
A|-----------------------------------------------
E|-----------------------------------------------



E|----------------------------------------------------------------------------------------------------
B|----------------------------------------------------------------------------------------------------
G|----------------12--14--------12----14--------------------------------------------------------------
D|------------------------15----------------12----10----------------12--10------10h12-----------------
A|--12----------------------------------------------------------12---------------------14------14/15--
E|----------------------------------------------------------------------------------------------------
http://www.guitartabcreator.com
Guitar Tab Creator is intended to store guitar tab created through the tool. It currently does not support in-line text editing. Any text you place in here will be lost. If you need to comment on your tab, please use the "Tab Notes" section located below.