Metal riffs

(/) Slide Up  (\) Slide Down  (h) Hammer On  (p) Pull Off  (b) Bend (r) Release (v) Vibrato


E|-----------------------------------------------------
B|-----------------------------------------------------
G|-----------------------------------------------------
D|-----------------------------------------------------
A|-----------------------------------------------------
E|--0--0--5--0--0--7--0--0--8--0--0--7--0--0--8--0-----



E|---------------------------------------------------
B|---------------------------------------------------
G|---------------------------------------------------
D|---------------------------------------------------
A|---------------------------------------------------
E|--0--0--5--0--0--7--0--0--8--0--0--7--0--0--10--0--




E|--------------------------------------------------
B|--------------------------------------------------
G|--------------------------------------------------
D|--------------------------------------------------
A|--------------------------------------------------
E|--0--0--5--0--0--7--0--0--5--0--0--3--0--0--1--0--


------------------------------------------------------------------
E|---------------------------------------------
B|---------------------------------------------
G|--------------4----5---------7------------9--
D|--------------4----5---------7------------9--
A|--------------2----3--3/5h7--5----5h7/10--7--
E|--0--0--0--3---------------------------------



E|----------------------------------------------------
B|----------------------------------------------------
G|--------------4----5---------7---------5----4-------
D|--------------4----5---------7---------5----4----5--
A|--------------2----3--3/5h7--5----7p5--3----2----5--
E|--0--0--0--3-------------------------------------3--
http://www.guitartabcreator.com
Guitar Tab Creator is intended to store guitar tab created through the tool. It currently does not support in-line text editing. Any text you place in here will be lost. If you need to comment on your tab, please use the "Tab Notes" section located below.