Em Stuff Bass Part

(/) Slide Up  (\) Slide Down  (h) Hammer On  (p) Pull Off  (b) Bend (r) Release (v) Vibrato


E|-----------------------------------
B|-----------------------------------
G|-----------------------------------
D|-----------------------------------
A|-----------------------------------
E|--0--0--0--2--2--2--3--3--3--5--7--



E|-----------------------------------
B|-----------------------------------
G|-----------------------------------
D|-----------------------------------
A|-----------------------------------
E|--0--0--0--2--2--2--3--3--3--2--0--



E|--------------------------------------------------------------------
B|--------------------------------------------------------------------
G|--------------------------------9-----------------------------------
D|-----5--------7--------9--------------5--------7--------9-----7--5--
A|--7-----5--7-----5--7-----5--7-----7-----5--7-----5--7-----5--------
E|--------------------------------------------------------------------
http://www.guitartabcreator.com
Guitar Tab Creator is intended to store guitar tab created through the tool. It currently does not support in-line text editing. Any text you place in here will be lost. If you need to comment on your tab, please use the "Tab Notes" section located below.