Em Stuff

(/) Slide Up  (\) Slide Down  (h) Hammer On  (p) Pull Off  (b) Bend (r) Release (v) Vibrato
E|---------------------------------------------------------------------
B|---------------------------------------------------------------------
G|--------------------------------------------------------------7h9p7--
D|-----5h7/9-----5h7--------5h7/9-----5h7--------5h7/9-----5h7---------
A|--7---------7-------7--7---------7-------5--7---------7--------------
E|---------------------------------------------------------------------



E|---------------------------------------------------
B|---------------------------------------------------
G|--------------------------------------------7h9p7--
D|-------5----------7----------9---------------------
A|--5h7-----5--5h7-----5--5h7-----5--5----/7---------
E|---------------------------------------------------



E|---------------------------------
B|---------------------------------
G|---------------------------------
D|--7------/9--9--9----7--9--9--9--
A|--5-------7--7--7----5--7--7--7--
E|--5-------0--0--0----5--0--0--0--



E|-------------------
B|-------------------
G|-------------------
D|--5--7--7/9--------
A|--5--7--7----9-----
E|--3--5--5-------7--



E|--0--0--0--0--0--0--0--0--5--3--5--7--5--3--5--3--
B|--------------------------------------------------
G|--------------------------------------------------
D|--------------------------------------------------
A|--------------------------------------------------
E|--------------------------------------------------



E|--0--0--0--0--0--0--0--0-----0--2--3--2--3--2--3--
B|--------------------------3-----------------------
G|--------------------------------------------------
D|--------------------------------------------------
A|--------------------------------------------------
E|--------------------------------------------------



E|----------------------------------------------------
B|----------------------------------------------------
G|----------------------------------------------------
D|----------------------------------------------------
A|--7----10----5----12--10------7----10----5----------
E|----------------------------------------------5--3--



E|--------------------------------------------
B|--------------------------------------------
G|--------------------------------------------
D|-------------9--9--7---------------5--5--7--
A|--7----7--7-------------3----3--3-----------
E|--------------------------------------------
http://www.guitartabcreator.com
Guitar Tab Creator is intended to store guitar tab created through the tool. It currently does not support in-line text editing. Any text you place in here will be lost. If you need to comment on your tab, please use the "Tab Notes" section located below.