EM song

(/) Slide Up  (\) Slide Down  (h) Hammer On  (p) Pull Off  (b) Bend (r) Release (v) Vibrato


E|--------------------------------------
B|--------------------------------------
G|--------------------------------------
D|-----6--7--9--7--6-----6--7--9--7--6--
A|--7-----------------7-----------------
E|--------------------------------------



E|--------------------------------------
B|--------------------------------------
G|--------------------------------------
D|--------4--5--4-----------4--5--4-----
A|--5--7-----------7--5--7-----------7--
E|--------------------------------------



E|--------------------------------
B|--------------------------------
G|--------------------------------
D|--------5--2-----------5--2-----
A|--3--5--------5--3--5--------5--
E|--------------------------------



E|-----------------------------------------------------------
B|-----------------------------------------------------------
G|-----------------------------------------------------------
D|-----------------------------------------------------------
A|--2--2--2--3--3--3--2--2--2--3--3--2--3--2--3--2--3--2--3--
E|-----------------------------------------------------------



E|-------------------------------------------------
B|-------------------------------------------------
G|-------------------------------------------------
D|-------------------------------------------------
A|--7--3--5--0------7--5--3--0--2------3--5--------
E|-------------------------------------------3--5--



E|--
B|--
G|--
D|--
A|--
E|--
http://www.guitartabcreator.com
Guitar Tab Creator is intended to store guitar tab created through the tool. It currently does not support in-line text editing. Any text you place in here will be lost. If you need to comment on your tab, please use the "Tab Notes" section located below.