Seremuggah 3

(/) Slide Up  (\) Slide Down  (h) Hammer On  (p) Pull Off  (b) Bend (r) Release (v) Vibrato


E|---------------------------------------------------------------------------
B|---------------------------------------------------------------------------
G|---------------------------------------------------------------------------
D|---------------------------------------------------------------------------
A|--------5-----------5----------5/8-----------5-----------5-----------8--5--
E|--0--0-----0--0--0-----0--3/6-------0--0--0-----0--0--0-----0--6--0--------



E|------------------------------------------------------------------------------
B|------------------------------------------------------------------------------
G|------------------------------------------------------------------------------
D|------------------------------------------------------------------8-----------
A|-----------5-----------5----------5/8-----------5-----------5-----------8--5--
E|--0--0--0-----0--0--0-----0--3/6-------0--0--0-----0--0--0-----0-----6--------



E|---------------------------------------------------------------------------------
B|---------------------------------------------------------------------------------
G|---------------------------------------------------------------------------------
D|---------------------------------------------------------------------------------
A|-----------5-----------5----------5/8-----------5-----------5-----------8--5-----
E|--0--0--0-----0--0--0-----0--3/6-------0--0--0-----0--0--0-----0--6--0-----------



E|------------------------------------------------------------------------------------
B|------------------------------------------------------------------------------------
G|------------------------------------------------------------------------------------
D|------------------------------------------------------------------8-----------------
A|-----------5-----------5----------5/8-----------5-----------5-----------8--5--------
E|--0--0--0-----0--0--0-----0--3/6-------0--0--0-----0--0--0-----0-----6--------6--1--



E|-------------------------------------
B|-------------------------------------
G|-------------------------------------
D|-----------5--------5----------8-----
A|--------------------------5/8-----8--
E|--3--3--3-----3--3-----3-------------



E|------------------------------------------------------------------------------------
B|------------------------------------------------------------------------------------
G|------------------------------------------------------------------------------------
D|------------------------------------------------------------------8-----------------
A|-----------5-----------5----------5/8-----------5-----------5-----------8--5--------
E|--0--0--0-----0--0--0-----0--3/6-------0--0--0-----0--0--0-----0-----6--------6--1--



E|----------------------------------------
B|----------------------------------------
G|----------------------------------------
D|-----------5-----------5----------8-----
A|-----------------------------5/8--------
E|--3--3--3-----3--3--3-----3----------6--
http://www.guitartabcreator.com
Guitar Tab Creator is intended to store guitar tab created through the tool. It currently does not support in-line text editing. Any text you place in here will be lost. If you need to comment on your tab, please use the "Tab Notes" section located below.