HEADSHOT GUITAR

(/) Slide Up  (\) Slide Down  (h) Hammer On  (p) Pull Off  (b) Bend (r) Release (v) Vibrato


E|---------------------------------------------------------
B|---------------------------------------------------------
G|---------------------------------------------------------
D|---------------------------------------------------------
A|----------------------------------------1-------3----3---
E|-0-2--0-2--0-2--0-2--0-2--0-2--0-2--0-2-----0-2----0-3---



E|---------------
B|---------------
G|---------------
D|---------------
A|---------------
E|-0-2-2---2-2-2-



E|-----------------------------------------------------------------
B|-----------------------------------------------------------------
G|-----------------------------------------------------------------
D|-----------------------------------------------------------------
A|-----------------------------------------------------------------
E|-0-0-2-2-2-2-2-2-3-3-3-3-2-2-2-2-5-5-5-5-3-3-3-3-6-6-6-6-5-5-5-5-



E|-----------------------------------------------------------------------------
B|-----------------------------------------------------------------------------
G|-----------------------------------------------------------------------------
D|-----------------------------------------------------------------------------
A|-----------------------------------------------------------------------------
E|-0-0-0-0-1----0-0-1--1--0--0-0-0-0-1----0-0-1-1--0--0-0-0-0-1----0-0-1--1--0-



E|------------------------
B|------------------------
G|------------------------
D|------------------------
A|----------------------1-
E|-0-0-0-0-1----0-0-1-4---



E|---------------------------------------------------------------------------------
B|---------------------------------------------------------------------------------
G|---------------------------------------------------------------------------------
D|---------------------------------------------------------------------------------
A|---------------------------------------------------------------------------------
E|-0-0-0-0-6----0-0-6-6-7----0-0-0-0-6----0-0-6-6-7----0-0-0-0-6----0-0-6-6-7------



E|------------------------
B|------------------------
G|------------------------
D|------------------------
A|------------------------
E|-0-0-0-0-6----0-0-6-6-5-
http://www.guitartabcreator.com
Guitar Tab Creator is intended to store guitar tab created through the tool. It currently does not support in-line text editing. Any text you place in here will be lost. If you need to comment on your tab, please use the "Tab Notes" section located below.