in blood/the world will burn Bass line chorus

(/) Slide Up  (\) Slide Down  (h) Hammer On  (p) Pull Off  (b) Bend (r) Release (v) Vibrato


E|--------------------------------------------------------------------------------
B|--------------------------------------------------------------------------------
G|--------------------------------------------------------------------------------
D|--------------------------------------------------------------------------------
A|--------------------------------------------------------------------------------
E|--0------0--0--0----0--0--0----0--0--0----8------0--0--0----0--0--0----0--0--0--



E|--------------------------------------------------------------------------------------------------
B|--------------------------------------------------------------------------------------------------
G|--------------------------------------------------------------------------------------------------
D|--------------------------------------------------------------------------------------------------
A|--10----------------------------------------------------------------------------------------------
E|----------0--0--0----0--0--0----0--0--0----8------8--8--8--8--8--8--8--8--8--8--8--8--8--8--8--8--



E|---------------------------------------------------------------------------------
B|---------------------------------------------------------------------------------
G|---------------------------------------------------------------------------------
D|---------------------------------------------------------------------------------
A|------------------------------------------10-------------------------------------
E|--0------0--0--0----0--0--0----0--0--0------------0--0--0----0--0--0----0--0--0--



E|----------------------------------------------------------------------------------------
B|----------------------------------------------------------------------------------------
G|----------------------------------------------------------------------------------------
D|----------------------------------------------------------------------------------------
A|----------------------------------------------------------------------------------------
E|--8------8--8--8--8--8--8--8--8--8--8--8--8--5------5--5--5--5--5--5--5--5--5--5--5--5--
http://www.guitartabcreator.com
Guitar Tab Creator is intended to store guitar tab created through the tool. It currently does not support in-line text editing. Any text you place in here will be lost. If you need to comment on your tab, please use the "Tab Notes" section located below.