1st riff of wasted - first 2 lines 1 guitar x 4 - lines 3 & 4 is 2nd guitar melody 3rd and 4th time - bpm 172

(/) Slide Up  (\) Slide Down  (h) Hammer On  (p) Pull Off  (b) Bend (r) Release (v) Vibrato
t: S S S S S S S S S S S S S S S S S S undefined S S S undefined S S S SS undefined S S S undefined S S S undefined S S S S S S SS S S S Sundefined
E|------------------------------------------------------------------------------------------
B|------------------------------------------------------------------------------------------
G|------------------------------------------------------------------------------------------
D|-7----------------------8----------------------10----------------------7-8-7----7-8-7-----
A|-5----------------------5----------------------8-----------------------------10-------8v--
E|----0-0-0--0-0-0--0-0-0----0-0-0--0-0-0--0-0-0-----0-0-0--0-0-0--0-0-0--------------------



E|----------------------------------------------------------------------------------------------------
B|----------------------------------------------------------------------------------------------------
G|----------------------------------------------------------------------------------------------------
D|-7----------------------8---------------------------------------------------------12-10-8----8-10-8-
A|-5----------------------5----------------------8--8-8-8-8-10-10-10-10-12-12-12-12---------12--------
E|----0-0-0--0-0-0--0-0-0----0-0-0--0-0-0--0-0-0-8----------------------------------------------------



E|--------------------------------------------------------------------------------------------------
B|--------------------------------------------------------------------------------------------------
G|--------------------------------------------------------------------------------------------------
D|-14----------------------15----------------------14----------------------10-12-10----10-12-10-----
A|-12----------------------13----------------------15-------------------------------13----------13v-
E|-----0-0-0--0-0-0--0-0-0-----0-0-0--0-0-0--0-0-0-----0-0-0--0-0-0--0-0-0--------------------------



E|------------------------------------------------------------------------------------------------------------------------------------------------------
B|------------------------------------------------------------------------------------------------------------------------------------------------------
G|------------------------------------------------------------------------------------------------------------------------------------------------------
D|--14-----------------------------------15------------------------------------------------------------------------------------12--10--8------8--10--8--
A|--12-----------------------------------13-----------------------------------8----8--8--8--8--10--10--10--10--12--12--12--12-------------12------------
E|--------0--0--0----0--0--0----0--0--0--------0--0--0----0--0--0----0--0--0--8-------------------------------------------------------------------------
http://www.guitartabcreator.com
Guitar Tab Creator is intended to store guitar tab created through the tool. It currently does not support in-line text editing. Any text you place in here will be lost. If you need to comment on your tab, please use the "Tab Notes" section located below.