1st, 2nd & 3rd part of verse WASTED - repeat last 2 lines.

(/) Slide Up  (\) Slide Down  (h) Hammer On  (p) Pull Off  (b) Bend (r) Release (v) Vibrato

(W|WW) Whole (H|HH) Half (Q|QQ) Quarter (E|EE) 8th (S|SS) 16th (T|TT) 32nd (X|XX) 64th

t: T T undefined undefined T T undefined undefined undefined undefined undefined undefined undefined undefined undefined T T T undefined T T T undefined T T T T T
E|-------------------------------------------
B|-------------------------------------------
G|-------------------------------------------
D|-------------------------------------------
A|-------------------------------------------
E|-0-0---0-0----------0-0-0--0-0-0--0-0-0--0-


t: T T undefined undefined T T undefined undefined undefined undefined undefined undefined undefined undefined undefined T T T undefined T T T undefined T T T T
E|------------------------------------------
B|------------------------------------------
G|------------------------------------------
D|----------------------------------------3-
A|----------------------------------------1-
E|-0-0---0-0----------0-0-0--0-0-0--0-0-0---


t: T T undefined T T T T T T T T T T T T T T T T T T T T T T T T T T
E|----------------------------------------------------------
B|----------------------------------------------------------
G|----------------------------------------------------------
D|----------------------------------------------------------
A|----------------------------------------------------------
E|-0-0---0-0--8-8-8-8-8-8-7-7-7-7-5-5-5-5-7-7-7-7-8-8-8-8---


t: T T undefined T T T T T T T T T T T T T T T T T T T T T T T T T T
E|--------------------------------------------------------
B|--------------------------------------------------------
G|--------------------------------------------------------
D|--------------------------------------------------------
A|--------------------------------------------------------
E|-0-0---0-0--8-8-8-8-8-8-7-7-7-7-5-5-5-5-3-3-3-3-5-5-5-5-


t: T T undefined T T T T T T T T T T T T T T T T T T T T T T T T T T
E|--------------------------------------------------------
B|--------------------------------------------------------
G|--------------------------------------------------------
D|--------------------------------------------------------
A|--------------------------------------------------------
E|-0-0---0-0--8-8-8-8-8-8-7-7-7-7-5-5-5-5-7-7-7-7-8-8-8-8-


t: T T undefined T T T T T T T T T T T T T T T T T T T T T T T T T T
E|--------------------------------------------------------
B|--------------------------------------------------------
G|--------------------------------------------------------
D|--------------------------------------------------------
A|--------------------------------------------------------
E|-0-0---0-0--8-8-8-8-8-8-7-7-7-7-5-5-5-5-3-3-3-3-2-2-2-2-


t: T T undefined T T T T T T T T T T T T T T T T T T T T T T T T T T T T T
E|-----------------------------------------------------
B|-----------------------------------------------------
G|-----------------------------------------------------
D|-----------------------------------------------------
A|-0---0---8---8---8---8-------------------------------
E|-0---0---8---8---7---7---5-5-5-5-5-5-7-7-7-7-8-8-8-8-


t: T T undefined T T T T T T T T T T T T T T T T T T T T T T T T T T T T
E|---------------------------------------------------
B|---------------------------------------------------
G|---------------------------------------------------
D|---------------------------------------------------
A|-0---0---8---8---8---8-----------------------------
E|-0---0---8---8---7---7---5-5-5-5-5-5-3-3-3-3-2-2-2-
http://www.guitartabcreator.com
Guitar Tab Creator is intended to store guitar tab created through the tool. It currently does not support in-line text editing. Any text you place in here will be lost. If you need to comment on your tab, please use the "Tab Notes" section located below.