S.O.S - At Vance

(/) Slide Up  (\) Slide Down  (h) Hammer On  (p) Pull Off  (b) Bend (r) Release (v) Vibrato


E|-------------------------|-----------------------|-----------------------|--
B|-------------------------|-----------------------|-----------------------|--
G|--10--10--9--9----7------|--7--7--5--5----3------|--3--3--2--2-----------|--
D|-------------------------|-----------------------|----------------5\3----|--
A|-------------------------|-----------------------|-----------------------|--
E|-------------------------|-----------------------|-----------------------|--



E|-----|-----|-----|-----|-----|-----|--
B|-----|-----|-----|-----|-----|-----|--
G|-----|-----|-----|-----|-----|-----|--
D|--7--|--7--|--7--|--7--|--7--|--7--|--
A|--5--|--5--|--5--|--5--|--5--|--5--|--
E|-----|-----|-----|-----|-----|-----|--



E|----------------|-----------------|--------|--------|--------|--------|--
B|----------------|-----------------|--------|--------|--------|--------|--
G|--10--9---------|--10--9--7--5----|--14----|--17----|--12----|--10----|--
D|-----------7----|-----------------|--------|--------|--------|--------|--
A|----------------|-----------------|--------|--------|--------|--------|--
E|----------------|-----------------|--------|--------|--------|--------|--



E|-----------------------------------------------------------------|--
B|-----------------------------------------------------------------|--
G|-----------------------------------------------------------------|--
D|-----------------------------------------------------------------|--
A|--8--5-----5----10--7-----7----12--8------8----13--10------10----|--
E|--------5--------------8--------------10---------------12--------|--



E|------------------------------------------------------------------------|--
B|------------------------------------------------------------------------|--
G|------------------------------------------------------------------------|--
D|------------------------------------------------------------------------|--
A|--15--12------12----17--13------13----15--12------12----13--10------10--|--
E|----------13----------------15----------------13----------------12------|--
http://www.guitartabcreator.com
Guitar Tab Creator is intended to store guitar tab created through the tool. It currently does not support in-line text editing. Any text you place in here will be lost. If you need to comment on your tab, please use the "Tab Notes" section located below.