Ocarina of time

(/) Slide Up  (\) Slide Down  (h) Hammer On  (p) Pull Off  (b) Bend (r) Release (v) Vibrato

E|--------------------------------------------------------
B|--------------------------------------------------------
G|--------------------------------------------------------
D|--7--------7--------7--10--9-------------7--------------
A|-----5--8-----5--8------------10--8--10-----5--3--7--5--
E|--------------------------------------------------------



E|-------------------------------------------------------
B|-------------------------------------------------------
G|--7--5--9------9--10----------7--5--9------10--12------
D|-----------10---------12---------------10----------12--
A|-------------------------------------------------------
E|-------------------------------------------------------



E|-------------------------------------------------------------------------------------------
B|--10--13--12----------------------------------10--13--12-----------------------------------
G|--------------12--10--12--14--7--5--9--7------------------12--10--12--14--7--5--9h10p9--7--
D|-------------------------------------------------------------------------------------------
A|-------------------------------------------------------------------------------------------
E|-------------------------------------------------------------------------------------------
http://www.guitartabcreator.com
Guitar Tab Creator is intended to store guitar tab created through the tool. It currently does not support in-line text editing. Any text you place in here will be lost. If you need to comment on your tab, please use the "Tab Notes" section located below.