feeling good

(/) Slide Up  (\) Slide Down  (h) Hammer On  (p) Pull Off  (b) Bend (r) Release (v) Vibrato
E|---------------------------------------------------------------------------------------------------------
B|---------------------------------------------------------------------------------------------------------
G|---------------------------------------------------------------------------------------------------------
D|---------------------------------------------------------------------------------------------------------
A|---------------------------------------------------------------------------------------------------------
E|----6v----8----8----6----6----4----4----3----3----6----3----6----8----8----6----6----4----4----3---------



E|------------------------------------------------
B|--------------4--6--11--9--7--6-----------------
G|--------------3--5--10--8--6--5-----------------
D|--------------1--3--8---6--4--3-----------------
A|--------------1--3--8---6--4--3-----------------
E|--3--6--3--6--1--3--8---6--4--3--3--6--3--6--8--



E|------------------------------------------------------
B|------------------------------------------------------
G|-----6--8--9--8--6--8--6-----6------------------------
D|--8-----------------------8-----8--6--8/8-------------
A|-------------------------------------------0/8--8/11--
E|------------------------------------------------------
http://www.guitartabcreator.com
Guitar Tab Creator is intended to store guitar tab created through the tool. It currently does not support in-line text editing. Any text you place in here will be lost. If you need to comment on your tab, please use the "Tab Notes" section located below.