Silbury Sands

(/) Slide Up  (\) Slide Down  (h) Hammer On  (p) Pull Off  (b) Bend (r) Release (v) Vibrato
E|---------------------7--5-------------7--5------------------------7--5-------------7--5-------------
B|----------5--7--7h8--------5--7--7h8--------7--7h8--7--5--7--7h8--------5--7--7h8--------7--7h8-----
G|----------------------------------------------------------------------------------------------------
D|----------------------------------------------------------------------------------------------------
A|--2v------------------------------------------------------------------------------------------------
E|--0-------------------------------------------------------------------------------------------------



E|-----|----0----0----0----0----0----0--|-------------------------------------------|--
B|--7--|----0----0----0----0----0----0--|-------------------------------------------|--
G|-----|----0----2----4----6----4----2--|------------------------------------0h2p0--|--
D|-----|----2----4----5----7----5----4--|-----0h2--2-----------------0h2--2---------|--
A|-----|----2----4----5----7----5----4--|-------------4--5--7-----------------------|--
E|-----|----0----0----0----0----0----0--|--0-------------------0--0-----------------|--



E|----------------------------------------------------------------------------------------------------
B|--8v--7v-----------------8v----7--8--10--8--7-------8v--7v------------------------------------------
G|----------7--6---------------------------------9------------7--6------------------------------------
D|----------------9--7--9-------------------------------------------9--7--9--9p7----------------------
A|--------------------------------------------------------------------------------9h10--9--7--7h9--7--
E|----------------------------------------------------------------------------------------------------



E|--------------------------------------------------------------------------------------------
B|------------------------------10b--10--8-------------8--------8--10--10b10-------8v--7h8p7--
G|------------------------------------------9----7--9-----7--9----------------9---------------
D|--------------------------------------------------------------------------------------------
A|--7--7h9--9h10--10h12--12h14----------------------------------------------------------------
E|--------------------------------------------------------------------------------------------



E|------------------------------------|--0--0----0----|--------------------2--0--0--
B|--5h7p5--3/5----8\7--7\5--5\3--3/5--|--0--3----2----|--------------------3--2--0--
G|------------------------------------|--0--2----2----|--------------------2--2--0--
D|------------------------------------|--2--0----2----|--------------------0--2--2--
A|------------------------------------|--2--0----0----|--------------------0--0--2--
E|------------------------------------|--0------------|--------------------------0--
http://www.guitartabcreator.com
Guitar Tab Creator is intended to store guitar tab created through the tool. It currently does not support in-line text editing. Any text you place in here will be lost. If you need to comment on your tab, please use the "Tab Notes" section located below.