silbury sands

(/) Slide Up  (\) Slide Down  (h) Hammer On  (p) Pull Off  (b) Bend (r) Release (v) Vibrato
E|-------------7--5---------------7--5------------|--0--0--0--0--0--0------------------------------
B|--5--7--7h8----------5--7--7h8--------7--7h8p7--|--0--0--0--0--0--0------------------------------
G|------------------------------------------------|--0--2--4--6--4--2------------------------------
D|------------------------------------------------|--2--4--5--7--5--4----------0h2--2--------------
A|------------------------------------------------|--2--4--5--7--5--4----2--2----------4--4--5-----
E|------------------------------------------------|--0--0--0--0--0--0----0--0----------------------



E|------------------------------------------------------------------------------------------------
B|--------------------------8v--7v-----------------8v----p7h8h10--8--7-------8v--7v---------------
G|-------------------0h2p0----------7--6--------------------------------9------------7--6---------
D|--------0h2--2--2-----------------------9p7h9--------------------------------------------9p7h9--
A|--2--2------------------------------------------------------------------------------------------
E|--0--0------------------------------------------------------------------------------------------



E|-----------------------------------------------------------------------------------------------
B|---------------------------------------------------------10b--10--8----------8-------8--10--10b
G|---------------------------------------------------------------------9--7h9-----7h9------------
D|--9--7-----------------------------------------------------------------------------------------
A|--------9--10--10--9--7--7h9p7--7h9--9h10--10h12--12h14----------------------------------------
E|-----------------------------------------------------------------------------------------------



E|--------------------------------------------|--0--0--0--|--|--2--0--0--2--0--|--|-----
B|-----8--7h8p7--5h7p5--3/5--8\7--7\5--5\3/5--|--0--3--2--|--|--3--2--0--3--2--|--|-----
G|--9-----------------------------------------|--0--2--2--|--|--2--2--0--2--2--|--|-----
D|--------------------------------------------|--2--0--2--|--|--0--2--2--0--2--|--|--7--
A|--------------------------------------------|--2--0--0--|--|--0--0--2--0--0--|--|--7--
E|--------------------------------------------|--0--------|--|--------0--------|--|-----



E|------------------------------------------------------------------------------------
B|--4---------------------------------------------------------------------------------
G|--4---------------------------------------------------------------------------------
D|--4------10--9--7----------------------10--9--7-------------------------------------
A|--6----------------10--9--7--9--10--7------------10--9--7--9--10--3--2--------------
E|------------------------------------------------------------------------3--3--2--0--
http://www.guitartabcreator.com
Guitar Tab Creator is intended to store guitar tab created through the tool. It currently does not support in-line text editing. Any text you place in here will be lost. If you need to comment on your tab, please use the "Tab Notes" section located below.