Ticket To Spain - Cub

(/) Slide Up  (\) Slide Down  (h) Hammer On  (p) Pull Off  (b) Bend (r) Release (v) Vibrato


E|--------------------------------------------------------------------------------------------
B|--------------------------------------------------------------------------------------------
G|--------------------------------------------------------------------------------------------
D|--------------------------------------------------------------------------------------------
A|--------------------------------------5--5--5--5--5--5--5--5--5--5--5--5--------------------
E|--5--5--5--5--5--5--5--5--5--5--5--5--------------------------------------5--5--5--5--5--5--



E|--------------------------------------------------------------------------------------------
B|--------------------------------------------------------------------------------------------
G|--------------------------------------------------------------------------------------------
D|--------------------------------------------------------------------------------------------
A|-----7--7--5--5--5--5--5--5--5--5--5--5--5--5--5--------------------------------------5--5--
E|--5-----------------------------------------------5--5--5--5--5--5--5--5--5--5--5--5--------



E|--------------------------------------------------------------------------------
B|--------------------------------------------------------------------------------
G|--------------------------------------------------------------------------------
D|--------------------------------------------------------------------------------
A|--5--5--5--5-----------------------7--7--5--5--5--5--5--5--5--7--7--7--7--7--7--
E|--------------5--5--5--5--5--5--5-----------------------------------------------



E|--------------------------------------------------------------------------------------------
B|--------------------------------------------------------------------------------------------
G|--------------------------------------------------------------------------------------------
D|--------------------------------------------------------------------------------------------
A|--5--5--5--5--5--5--7--7--7--7--7--7--------------------------------------5--5--5--5--5--5--
E|--------------------------------------5--5--5--5--5--5--5--5--5--5--5--5--------------------



E|--------------------------------------------------------------------------------------------
B|--------------------------------------------------------------------------------------------
G|--------------------------------------------------------------------------------------------
D|-----------------------------------------------------------------4--------5--4-----4--------
A|--7--7--7--7--7--7-----------4--------5--4-----4--------5--5--5-----5--5--------7-----7--5--
E|--------------------5--5--5-----5--5--------7-----7--5--------------------------------------



E|--------------------------------------------------------------------------
B|--------------------------------------------------------------------------
G|--------------------------------------------------------------------------
D|--------------------------------------------------------------------------
A|-----------4--------5--4-----4--------5--5--5--5--5--5--5--5--5--5--5--5--
E|--5--5--5-----5--5--------7-----7--5--------------------------------------



E|--------------------------------------------------------------------------
B|--------------------------------------------------------------------------
G|--------------------------------------------------------------------------
D|--------------------------------------------------------------------------
A|--2--2--2--2--2--2--4--4--4--4--4--4--5--5--5--5--5--5--2--2--2--2--2--2--
E|--------------------------------------------------------------------------



E|--------------------------------------------------------------------------
B|--------------------------------------------------------------------------
G|--------------------------------------------------------------------------
D|--------------------------------------------------------2--2--2--2--2--2--
A|--2--2--2--2--2--2--4--4--4--4--4--4--5--5--5--5--5--5--------------------
E|--------------------------------------------------------------------------



E|--------------------------------------------------------------------------------------------
B|--------------------------------------------------------------------------------------------
G|--------------------------------------------------------------------------------------------
D|--------------------------------------------------------------------------------------------
A|--------------------------------------5--5--5--5--5--5--5--5--5--5--5--5--------------------
E|--5--5--5--5--5--5--5--5--5--5--5--5--------------------------------------5--5--5--5--5--5--



E|-----------------------------------------------------------------------------------------------
B|-----------------------------------------------------------------------------------------------
G|-----------------------------------------------------------------------------------------------
D|-----------------------------------------------------------------------------------------------
A|-----7--7--5--5--5--5--5--5--5--5--5--5--5--5--5--------------------------------------5--5-----
E|--5-----------------------------------------------5--5--5--5--5--5--5--5--5--5--5--5-----------



E|--------------------------------------------------------------------------------
B|--------------------------------------------------------------------------------
G|--------------------------------------------------------------------------------
D|--------------------------------------------------------------------------------
A|--5--5--5--5-----------------------7--7--5--5--5--5--5--5--5--7--7--7--7--7--7--
E|--------------5--5--5--5--5--5--5-----------------------------------------------



E|--------------------------------------------------------------------------
B|--------------------------------------------------------------------------
G|--------------------------------------------------------------------------
D|--------------------------------------------------------------------------
A|--5--5--5--5--5--5--7--7--7--7--7--7--------------------------------------
E|--------------------------------------5--5--5--5--5--5--5--5--5--5--5--5--



E|-----------------------------------------------------------------------------
B|-----------------------------------------------------------------------------
G|-----------------------------------------------------------------------------
D|-----------------------------------------------------------------------------
A|--5--5--5--5--5--5--7--7--7--7--7--7-----------4--------5--4-----4-----------
E|--------------------------------------5--5--5-----5--5--------7-----7--5-----



E|--------------------------------------------------------------------------
B|--------------------------------------------------------------------------
G|--------------------------------------------------------------------------
D|--------------------------------------------------------------------------
A|--5--5--5--5--5--5--7--7--7--7--7--7--------------------------------------
E|--------------------------------------5--5--5--5--5--5--5--5--5--5--5--5--



E|-----------------------------------------------------------
B|-----------------------------------------------------------
G|-----------------------------------------------------------
D|-----------------------------------------------------------
A|--5--5--5--5--5--5--7--7--7--7--7--7-----------------------
E|--------------------------------------5--5--5--5--5--5--5--
http://www.guitartabcreator.com
Guitar Tab Creator is intended to store guitar tab created through the tool. It currently does not support in-line text editing. Any text you place in here will be lost. If you need to comment on your tab, please use the "Tab Notes" section located below.