"Parasola" piosenka szturmowa

(/) Slide Up  (\) Slide Down  (h) Hammer On  (p) Pull Off  (b) Bend (r) Release (v) Vibrato


E|--------------------------------------------------------------------------1--1--0--1-----0--
B|--------------------------1--1--0-----0--1--3--3--1--0-----0--1--1--1--1--------------1-----
G|--------2--2--0--------2-----------2--------------------2-----------------------------------
D|-----3-----------3--2-----------------------------------------------------------------------
A|--3-----------------------------------------------------------------------------------------
E|--------------------------------------------------------------------------------------------



E|--------------1-----------1--0-----------0-----------------
B|--1--1--1--1-----1--------------0-----------3--1--1--------
G|--------------------2--------------0-----------------------
D|-----------------------3--------------2--------------------
A|-----------------------------------------------------3--3--
E|-----------------------------------------------------------



E|-----------------------------1--------------------------------
B|--------------------0--0--1-----1--0--1-----------------------
G|--------0--2--0--------------------------2-----0--2--0--------
D|--3--3-----------3--------------------------3-----------------
A|--------------------------------------------------------3--3--
E|--------------------------------------------------------------



E|--------
B|--------
G|--------
D|--3--3--
A|--------
E|--------
http://www.guitartabcreator.com
Guitar Tab Creator is intended to store guitar tab created through the tool. It currently does not support in-line text editing. Any text you place in here will be lost. If you need to comment on your tab, please use the "Tab Notes" section located below.