Stolichani w Poweche

(/) Slide Up  (\) Slide Down  (h) Hammer On  (p) Pull Off  (b) Bend (r) Release (v) Vibrato


E|------------------------------------------------
B|----------8--8----8--10--11----8--8--8--11--10--
G|--7--7------------------------------------------
D|------------------------------------------------
A|------------------------------------------------
E|------------------------------------------------



E|------------------------------------------
B|---------------------------------------8--
G|--11--11----11--8--7----7--7----7--11-----
D|------------------------------------------
A|------------------------------------------
E|------------------------------------------
http://www.guitartabcreator.com
Guitar Tab Creator is intended to store guitar tab created through the tool. It currently does not support in-line text editing. Any text you place in here will be lost. If you need to comment on your tab, please use the "Tab Notes" section located below.