Second bluesy riff

(/) Slide Up  (\) Slide Down  (h) Hammer On  (p) Pull Off  (b) Bend (r) Release (v) Vibrato


E|-------7-----------------------------------------------
B|--7h9-----9--15b15b15b14--12--9--7---------------------
G|------------------------------------8--7b7b7b7--5------
D|---------------------------------------------------7v--
A|-------------------------------------------------------
E|-------------------------------------------------------



E|------------------------------------------------
B|------------------------------------------------
G|-------7-----9b9b9b7----------------------------
D|--7h9-----9-----------9--7----------------------
A|----------------------------9--7b7b7b7----------
E|----------------------------------------10--7v--
http://www.guitartabcreator.com
Guitar Tab Creator is intended to store guitar tab created through the tool. It currently does not support in-line text editing. Any text you place in here will be lost. If you need to comment on your tab, please use the "Tab Notes" section located below.